  0
SECTION
  2
HEADER
  9
$ACADVER
  1
AC1015
  9
$ACADMAINTVER
 70
    18
  9
$DWGCODEPAGE
  3
ANSI_1250
  9
$INSBASE
 10
0.0
 20
0.0
 30
0.0
  9
$EXTMIN
 10
0.0
 20
0.0
 30
0.0
  9
$EXTMAX
 10
3780.0
 20
5346.0
 30
0.0
  9
$LIMMIN
 10
0.0
 20
0.0
  9
$LIMMAX
 10
3780.0
 20
5346.0
  9
$ORTHOMODE
 70
     0
  9
$REGENMODE
 70
     1
  9
$FILLMODE
 70
     1
  9
$QTEXTMODE
 70
     0
  9
$MIRRTEXT
 70
     0
  9
$LTSCALE
 40
18.0
  9
$ATTMODE
 70
     1
  9
$TEXTSIZE
 40
0.2
  9
$TRACEWID
 40
0.05
  9
$TEXTSTYLE
  7
Standard
  9
$CLAYER
  8
0
  9
$CELTYPE
  6
ByLayer
  9
$CECOLOR
 62
   256
  9
$CELTSCALE
 40
1.0
  9
$DISPSILH
 70
     0
  9
$DIMSCALE
 40
1.0
  9
$DIMASZ
 40
1.799999999999999
  9
$DIMEXO
 40
0.0625
  9
$DIMDLI
 40
0.38
  9
$DIMRND
 40
0.0
  9
$DIMDLE
 40
0.0
  9
$DIMEXE
 40
0.18
  9
$DIMTP
 40
0.0
  9
$DIMTM
 40
0.0
  9
$DIMTXT
 40
0.2000000029802322
  9
$DIMCEN
 40
0.09
  9
$DIMTSZ
 40
0.0
  9
$DIMTOL
 70
     0
  9
$DIMLIM
 70
     0
  9
$DIMTIH
 70
     1
  9
$DIMTOH
 70
     1
  9
$DIMSE1
 70
     0
  9
$DIMSE2
 70
     0
  9
$DIMTAD
 70
     0
  9
$DIMZIN
 70
     0
  9
$DIMBLK
  1

  9
$DIMASO
 70
     1
  9
$DIMSHO
 70
     1
  9
$DIMPOST
  1

  9
$DIMAPOST
  1

  9
$DIMALT
 70
     0
  9
$DIMALTD
 70
     2
  9
$DIMALTF
 40
25.4
  9
$DIMLFAC
 40
1.0
  9
$DIMTOFL
 70
     0
  9
$DIMTVP
 40
0.0
  9
$DIMTIX
 70
     0
  9
$DIMSOXD
 70
     0
  9
$DIMSAH
 70
     0
  9
$DIMBLK1
  1

  9
$DIMBLK2
  1

  9
$DIMSTYLE
  2
Standard
  9
$DIMCLRD
 70
     0
  9
$DIMCLRE
 70
     0
  9
$DIMCLRT
 70
     0
  9
$DIMTFAC
 40
1.0
  9
$DIMGAP
 40
0.09
  9
$DIMJUST
 70
     0
  9
$DIMSD1
 70
     0
  9
$DIMSD2
 70
     0
  9
$DIMTOLJ
 70
     1
  9
$DIMTZIN
 70
     0
  9
$DIMALTZ
 70
     0
  9
$DIMALTTZ
 70
     0
  9
$DIMUPT
 70
     0
  9
$DIMDEC
 70
     4
  9
$DIMTDEC
 70
     4
  9
$DIMALTU
 70
     2
  9
$DIMALTTD
 70
     2
  9
$DIMTXSTY
  7
Standard
  9
$DIMAUNIT
 70
     0
  9
$DIMADEC
 70
     0
  9
$DIMALTRND
 40
0.0
  9
$DIMAZIN
 70
     0
  9
$DIMDSEP
 70
    46
  9
$DIMATFIT
 70
     3
  9
$DIMFRAC
 70
     0
  9
$DIMLDRBLK
  1

  9
$DIMLUNIT
 70
     2
  9
$DIMLWD
 70
    -2
  9
$DIMLWE
 70
    -2
  9
$DIMTMOVE
 70
     0
  9
$LUNITS
 70
     2
  9
$LUPREC
 70
     4
  9
$SKETCHINC
 40
0.1
  9
$FILLETRAD
 40
0.0
  9
$AUNITS
 70
     0
  9
$AUPREC
 70
     0
  9
$MENU
  1
.
  9
$ELEVATION
 40
0.0
  9
$PELEVATION
 40
0.0
  9
$THICKNESS
 40
0.0
  9
$LIMCHECK
 70
     0
  9
$CHAMFERA
 40
0.0
  9
$CHAMFERB
 40
0.0
  9
$CHAMFERC
 40
0.0
  9
$CHAMFERD
 40
0.0
  9
$SKPOLY
 70
     0
  9
$TDCREATE
 40
2457149.296384688
  9
$TDUCREATE
 40
2457149.213051354
  9
$TDUPDATE
 40
2457149.296384688
  9
$TDUUPDATE
 40
2457149.213051354
  9
$TDINDWG
 40
0.0000270255
  9
$TDUSRTIMER
 40
0.0000270255
  9
$USRTIMER
 70
     1
  9
$ANGBASE
 50
0.0
  9
$ANGDIR
 70
     0
  9
$PDMODE
 70
     0
  9
$PDSIZE
 40
0.0
  9
$PLINEWID
 40
0.0
  9
$SPLFRAME
 70
     0
  9
$SPLINETYPE
 70
     6
  9
$SPLINESEGS
 70
     8
  9
$HANDSEED
  5
5C5
  9
$SURFTAB1
 70
     6
  9
$SURFTAB2
 70
     6
  9
$SURFTYPE
 70
     6
  9
$SURFU
 70
     6
  9
$SURFV
 70
     6
  9
$UCSBASE
  2

  9
$UCSNAME
  2

  9
$UCSORG
 10
0.0
 20
0.0
 30
0.0
  9
$UCSXDIR
 10
1.0
 20
0.0
 30
0.0
  9
$UCSYDIR
 10
0.0
 20
1.0
 30
0.0
  9
$UCSORTHOREF
  2

  9
$UCSORTHOVIEW
 70
     0
  9
$UCSORGTOP
 10
0.0
 20
0.0
 30
0.0
  9
$UCSORGBOTTOM
 10
0.0
 20
0.0
 30
0.0
  9
$UCSORGLEFT
 10
0.0
 20
0.0
 30
0.0
  9
$UCSORGRIGHT
 10
0.0
 20
0.0
 30
0.0
  9
$UCSORGFRONT
 10
0.0
 20
0.0
 30
0.0
  9
$UCSORGBACK
 10
0.0
 20
0.0
 30
0.0
  9
$PUCSBASE
  2

  9
$PUCSNAME
  2

  9
$PUCSORG
 10
0.0
 20
0.0
 30
0.0
  9
$PUCSXDIR
 10
1.0
 20
0.0
 30
0.0
  9
$PUCSYDIR
 10
0.0
 20
1.0
 30
0.0
  9
$PUCSORTHOREF
  2

  9
$PUCSORTHOVIEW
 70
     0
  9
$PUCSORGTOP
 10
0.0
 20
0.0
 30
0.0
  9
$PUCSORGBOTTOM
 10
0.0
 20
0.0
 30
0.0
  9
$PUCSORGLEFT
 10
0.0
 20
0.0
 30
0.0
  9
$PUCSORGRIGHT
 10
0.0
 20
0.0
 30
0.0
  9
$PUCSORGFRONT
 10
0.0
 20
0.0
 30
0.0
  9
$PUCSORGBACK
 10
0.0
 20
0.0
 30
0.0
  9
$USERI1
 70
     0
  9
$USERI2
 70
     0
  9
$USERI3
 70
     0
  9
$USERI4
 70
     0
  9
$USERI5
 70
     0
  9
$USERR1
 40
0.0
  9
$USERR2
 40
0.0
  9
$USERR3
 40
0.0
  9
$USERR4
 40
0.0
  9
$USERR5
 40
0.0
  9
$WORLDVIEW
 70
     1
  9
$SHADEDGE
 70
     3
  9
$SHADEDIF
 70
    70
  9
$TILEMODE
 70
     1
  9
$MAXACTVP
 70
    64
  9
$PINSBASE
 10
0.0
 20
0.0
 30
0.0
  9
$PLIMCHECK
 70
     0
  9
$PEXTMIN
 10
0.0
 20
0.0
 30
0.0
  9
$PEXTMAX
 10
3780.0
 20
5346.0
 30
0.0
  9
$PLIMMIN
 10
0.0
 20
0.0
  9
$PLIMMAX
 10
3780.0
 20
5346.0
  9
$UNITMODE
 70
     0
  9
$VISRETAIN
 70
     1
  9
$PLINEGEN
 70
     0
  9
$PSLTSCALE
 70
     1
  9
$TREEDEPTH
 70
  3020
  9
$CMLSTYLE
  2
Standard
  9
$CMLJUST
 70
     0
  9
$CMLSCALE
 40
1.0
  9
$PROXYGRAPHICS
 70
     1
  9
$MEASUREMENT
 70
     1
  9
$CELWEIGHT
370
    -1
  9
$ENDCAPS
280
     0
  9
$JOINSTYLE
280
     0
  9
$LWDISPLAY
290
     0
  9
$INSUNITS
 70
     4
  9
$HYPERLINKBASE
  1

  9
$STYLESHEET
  1

  9
$XEDIT
290
     1
  9
$CEPSNTYPE
380
     0
  9
$PSTYLEMODE
290
     1
  9
$FINGERPRINTGUID
  2
{7F733673-3A98-4141-96B7-5012FB92F5FD}
  9
$VERSIONGUID
  2
{3FC4440B-EE27-4068-9139-F2EC2FE112E4}
  9
$EXTNAMES
290
     1
  9
$PSVPSCALE
 40
0.0
  9
$OLESTARTUP
290
     0
  0
ENDSEC
  0
SECTION
  2
CLASSES
  0
CLASS
  1
ACDBDICTIONARYWDFLT
  2
AcDbDictionaryWithDefault
  3
ObjectDBX Classes
 90
        0
280
     0
281
     0
  0
CLASS
  1
MATERIAL
  2
AcDbMaterial
  3
ObjectDBX Classes
 90
     1153
280
     0
281
     0
  0
CLASS
  1
VISUALSTYLE
  2
AcDbVisualStyle
  3
ObjectDBX Classes
 90
     4095
280
     0
281
     0
  0
CLASS
  1
SCALE
  2
AcDbScale
  3
ObjectDBX Classes
 90
     1153
280
     0
281
     0
  0
CLASS
  1
TABLESTYLE
  2
AcDbTableStyle
  3
ObjectDBX Classes
 90
     4095
280
     0
281
     0
  0
CLASS
  1
MLEADERSTYLE
  2
AcDbMLeaderStyle
  3
ACDB_MLEADERSTYLE_CLASS
 90
     4095
280
     0
281
     0
  0
CLASS
  1
DICTIONARYVAR
  2
AcDbDictionaryVar
  3
ObjectDBX Classes
 90
        0
280
     0
281
     0
  0
CLASS
  1
CELLSTYLEMAP
  2
AcDbCellStyleMap
  3
ObjectDBX Classes
 90
     1152
280
     0
281
     0
  0
CLASS
  1
ACDBPLACEHOLDER
  2
AcDbPlaceHolder
  3
ObjectDBX Classes
 90
        0
280
     0
281
     0
  0
CLASS
  1
LAYOUT
  2
AcDbLayout
  3
ObjectDBX Classes
 90
        0
280
     0
281
     0
  0
ENDSEC
  0
SECTION
  2
TABLES
  0
TABLE
  2
VPORT
  5
8
330
0
100
AcDbSymbolTable
 70
     1
  0
VPORT
  5
57
330
8
100
AcDbSymbolTableRecord
100
AcDbViewportTableRecord
  2
*Active
 70
     0
 10
0.0
 20
0.0
 11
1.0
 21
1.0
 12
1890.0
 22
2673.0
 13
0.0
 23
0.0
 14
1.0
 24
1.0
 15
0.0
 25
0.0
 16
0.0
 26
0.0
 36
1.0
 17
0.0
 27
0.0
 37
0.0
 40
5346.0
 41
0.7070707070707071
 42
50.0
 43
0.0
 44
0.0
 50
0.0
 51
0.0
 71
     0
 72
   100
 73
     1
 74
     1
 75
     0
 76
     0
 77
     0
 78
     0
281
     0
 65
     1
110
0.0
120
0.0
130
0.0
111
1.0
121
0.0
131
0.0
112
0.0
122
1.0
132
0.0
 79
     0
146
0.0
  0
ENDTAB
  0
TABLE
  2
LTYPE
  5
5
330
0
100
AcDbSymbolTable
 70
     1
  0
LTYPE
  5
5B
330
5
100
AcDbSymbolTableRecord
100
AcDbLinetypeTableRecord
  2
ByBlock
 70
     0
  3

 72
    65
 73
     0
 40
0.0
  0
LTYPE
  5
5C
330
5
100
AcDbSymbolTableRecord
100
AcDbLinetypeTableRecord
  2
ByLayer
 70
     0
  3

 72
    65
 73
     0
 40
0.0
  0
LTYPE
  5
5D
330
5
100
AcDbSymbolTableRecord
100
AcDbLinetypeTableRecord
  2
Continuous
 70
     0
  3
Solid line
 72
    65
 73
     0
 40
0.0
  0
ENDTAB
  0
TABLE
  2
LAYER
  5
2
330
0
100
AcDbSymbolTable
 70
    29
  0
LAYER
  5
54
330
2
100
AcDbSymbolTableRecord
100
AcDbLayerTableRecord
  2
0
 70
     0
 62
     7
  6
Continuous
370
    -3
390
F
  0
LAYER
  5
75
330
2
100
AcDbSymbolTableRecord
100
AcDbLayerTableRecord
  2
Geometria szkicu (ISO)
 70
     0
 62
     7
  6
Continuous
370
    25
390
F
  0
LAYER
  5
76
330
2
100
AcDbSymbolTableRecord
100
AcDbLayerTableRecord
  2
Kreskowanie (ISO)
 70
     0
 62
     7
  6
Continuous
370
    18
390
F
  0
LAYER
  5
7E
330
2
100
AcDbSymbolTableRecord
100
AcDbLayerTableRecord
  2
Obramowanie (ISO)
 70
     0
 62
     7
  6
Continuous
370
    70
390
F
  0
LAYER
  5
85
330
2
100
AcDbSymbolTableRecord
100
AcDbLayerTableRecord
  2
Symbol (ISO)
 70
     0
 62
     7
  6
Continuous
370
    25
390
F
  0
LAYER
  5
8B
330
2
100
AcDbSymbolTableRecord
100
AcDbLayerTableRecord
  2
Widoczne (ISO)
 70
     0
 62
     7
  6
Continuous
370
    18
390
F
  0
LAYER
  5
8D
330
2
100
AcDbSymbolTableRecord
100
AcDbLayerTableRecord
  2
Wymiar (ISO)
 70
     0
 62
     7
  6
Continuous
370
    25
390
F
  0
ENDTAB
  0
TABLE
  2
STYLE
  5
3
330
0
100
AcDbSymbolTable
 70
     6
  0
STYLE
  5
55
330
3
100
AcDbSymbolTableRecord
100
AcDbTextStyleTableRecord
  2
Standard
 70
     0
 40
0.0
 41
1.0
 50
0.0
 71
     0
 42
0.2
  3
tahoma.ttf
  4

1001
ACAD
1000
Tahoma
1071
      256
  0
STYLE
  5
5A
330
3
100
AcDbSymbolTableRecord
100
AcDbTextStyleTableRecord
  2
Annotative
 70
     0
 40
0.0
 41
1.0
 50
0.0
 71
     0
 42
0.2
  3
txt
  4

1001
AcadAnnotative
1000
AnnotativeData
1002
{
1070
     1
1070
     1
1002
}
  0
STYLE
  5
90
330
3
100
AcDbSymbolTableRecord
100
AcDbTextStyleTableRecord
  2
Tekst etykiety (ISO)
 70
     0
 40
0.0
 41
1.0
 50
0.0
 71
     0
 42
0.2
  3
tahoma.ttf
  4

1001
ACAD
1000
Tahoma
1071
      256
  0
STYLE
  5
91
330
3
100
AcDbSymbolTableRecord
100
AcDbTextStyleTableRecord
  2
Tekst notatki (ISO)
 70
     0
 40
0.0
 41
1.0
 50
0.0
 71
     0
 42
0.2
  3
tahoma.ttf
  4

1001
ACAD
1000
Tahoma
1071
      256
  0
STYLE
  5
92
330
3
100
AcDbSymbolTableRecord
100
AcDbTextStyleTableRecord
  2
wibo Tekst etykiety (ISO)
 70
     0
 40
0.0
 41
1.0
 50
0.0
 71
     0
 42
0.2
  3
tahoma.ttf
  4

1001
ACAD
1000
Tahoma
1071
      256
  0
STYLE
  5
93
330
3
100
AcDbSymbolTableRecord
100
AcDbTextStyleTableRecord
  2
wibo Tekst notatki (ISO)
 70
     0
 40
0.0
 41
1.0
 50
0.0
 71
     0
 42
0.2
  3
tahoma.ttf
  4

1001
ACAD
1000
Tahoma
1071
      256
  0
ENDTAB
  0
TABLE
  2
VIEW
  5
6
330
0
100
AcDbSymbolTable
 70
     0
  0
ENDTAB
  0
TABLE
  2
UCS
  5
7
330
0
100
AcDbSymbolTable
 70
     0
  0
ENDTAB
  0
TABLE
  2
APPID
  5
9
330
0
100
AcDbSymbolTable
 70
     3
  0
APPID
  5
56
330
9
100
AcDbSymbolTableRecord
100
AcDbRegAppTableRecord
  2
ACAD
 70
     0
  0
APPID
  5
5E
330
9
100
AcDbSymbolTableRecord
100
AcDbRegAppTableRecord
  2
AcadAnnotative
 70
     0
  0
APPID
  5
5B4
330
9
100
AcDbSymbolTableRecord
100
AcDbRegAppTableRecord
  2
ACAD_MLEADERVER
 70
     0
  0
ENDTAB
  0
TABLE
  2
DIMSTYLE
  5
A
330
0
100
AcDbSymbolTable
 70
    28
100
AcDbDimStyleTable
 71
     0
  0
DIMSTYLE
105
58
330
A
100
AcDbSymbolTableRecord
100
AcDbDimStyleTableRecord
  2
Standard
 70
     0
340
55
  0
DIMSTYLE
105
59
330
A
100
AcDbSymbolTableRecord
100
AcDbDimStyleTableRecord
  2
Annotative
 70
     0
340
55
1001
AcadAnnotative
1000
AnnotativeData
1002
{
1070
     1
1070
     1
1002
}
  0
DIMSTYLE
105
94
330
A
100
AcDbSymbolTableRecord
100
AcDbDimStyleTableRecord
  2
Domyślne - Metoda 1b (ISO)
 70
     0
 40
18.0
 41
2.5
 42
0.0
 43
5.999999999999999
 44
3.174999999999999
 45
0.00000001
 46
10.0
 73
     0
 77
     1
 78
     8
 79
     2
140
3.5
143
0.03937
147
0.762
171
     3
172
     1
176
   256
177
   256
178
   256
179
     2
271
     2
272
     2
274
     3
278
    44
284
     8
286
     8
340
91
371
    -1
372
    -1
  0
DIMSTYLE
105
95
330
A
100
AcDbSymbolTableRecord
100
AcDbDimStyleTableRecord
  2
Domyślne - Metoda 1b (ISO)$7
 70
     0
 40
18.0
 41
2.5
 42
0.0
 43
5.999999999999999
 44
3.174999999999999
 45
0.00000001
 46
10.0
 73
     0
 77
     1
 78
     8
 79
     2
140
3.5
143
0.03937
147
0.762
171
     3
172
     1
176
   256
177
   256
178
   256
179
     2
271
     2
272
     2
274
     3
278
    44
284
     8
286
     8
340
91
371
    -1
372
    -1
  0
DIMSTYLE
105
96
330
A
100
AcDbSymbolTableRecord
100
AcDbDimStyleTableRecord
  2
Domyślne - Metoda 2a (ISO)
 70
     0
 40
18.0
 41
2.5
 42
0.0
 43
5.999999999999999
 44
3.174999999999999
 45
0.00000001
 46
10.0
 77
     1
 78
     8
 79
     2
140
3.5
143
0.03937
147
0.762
171
     3
172
     1
176
   256
177
   256
178
   256
179
     2
271
     2
272
     2
274
     3
278
    44
284
     8
286
     8
340
91
371
    -1
372
    -1
  0
DIMSTYLE
105
97
330
A
100
AcDbSymbolTableRecord
100
AcDbDimStyleTableRecord
  2
Domyślne - Metoda 2a (ISO)$7
 70
     0
 40
18.0
 41
2.5
 42
0.0
 43
5.999999999999999
 44
3.174999999999999
 45
0.00000001
 46
10.0
 77
     1
 78
     8
 79
     2
140
3.5
143
0.03937
147
0.762
171
     3
172
     1
176
   256
177
   256
178
   256
179
     2
271
     2
272
     2
274
     3
278
    44
284
     8
286
     8
340
91
371
    -1
372
    -1
  0
DIMSTYLE
105
98
330
A
100
AcDbSymbolTableRecord
100
AcDbDimStyleTableRecord
  2
Domyślne - Metoda 2b (ISO)
 70
     0
 40
18.0
 41
2.5
 42
0.0
 43
5.999999999999999
 44
3.174999999999999
 45
0.00000001
 46
10.0
 77
     1
 78
     8
 79
     2
140
3.5
143
0.03937
147
0.762
171
     3
172
     1
176
   256
177
   256
178
   256
179
     2
271
     2
272
     2
274
     3
278
    44
284
     8
286
     8
340
91
371
    -1
372
    -1
  0
DIMSTYLE
105
99
330
A
100
AcDbSymbolTableRecord
100
AcDbDimStyleTableRecord
  2
Domyślne - Metoda 2b (ISO)$7
 70
     0
 40
18.0
 41
2.5
 42
0.0
 43
5.999999999999999
 44
3.174999999999999
 45
0.00000001
 46
10.0
 77
     1
 78
     8
 79
     2
140
3.5
143
0.03937
147
0.762
171
     3
172
     1
176
   256
177
   256
178
   256
179
     2
271
     2
272
     2
274
     3
278
    44
284
     8
286
     8
340
91
371
    -1
372
    -1
  0
DIMSTYLE
105
9A
330
A
100
AcDbSymbolTableRecord
100
AcDbDimStyleTableRecord
  2
Domyślne - mm [cale] (ISO)
 70
     0
  4
 cal
 40
18.0
 41
2.5
 42
0.0
 43
5.999999999999999
 44
3.174999999999999
 45
0.00000001
 46
10.0
 73
     0
 74
     0
 77
     1
 78
     8
 79
     2
140
3.5
143
0.03937
147
0.762
170
     1
171
     3
172
     1
176
   256
177
   256
178
   256
179
     3
271
     3
272
     2
274
     3
275
     1
278
    44
284
     8
285
     8
286
     8
340
91
371
    -1
372
    -1
  0
DIMSTYLE
105
9B
330
A
100
AcDbSymbolTableRecord
100
AcDbDimStyleTableRecord
  2
Domyślne - mm [cale] (ISO)$7
 70
     0
  4
 cal
 40
18.0
 41
2.5
 42
0.0
 43
5.999999999999999
 44
3.174999999999999
 45
0.00000001
 46
10.0
 73
     0
 74
     0
 77
     1
 78
     8
 79
     2
140
3.5
143
0.03937
147
0.762
170
     1
171
     3
172
     1
176
   256
177
   256
178
   256
179
     3
271
     3
272
     2
274
     3
275
     1
278
    44
284
     8
285
     8
286
     8
340
91
371
    -1
372
    -1
  0
DIMSTYLE
105
9C
330
A
100
AcDbSymbolTableRecord
100
AcDbDimStyleTableRecord
  2
Domyślne (ISO)
 70
     0
 40
18.0
 41
2.5
 42
0.0
 43
5.999999999999999
 44
3.174999999999999
 45
0.00000001
 46
10.0
 73
     0
 74
     0
 77
     1
140
3.5
143
0.03937
146
1.001485705375671
147
0.762
171
     3
172
     1
176
   256
177
   256
178
   256
179
     2
271
     2
272
     2
274
     3
278
    44
340
91
371
    -1
372
    -1
  0
DIMSTYLE
105
9D
330
A
100
AcDbSymbolTableRecord
100
AcDbDimStyleTableRecord
  2
Domyślne (ISO)$7
 70
     0
 40
18.0
 41
2.5
 42
0.0
 43
5.999999999999999
 44
3.174999999999999
 45
0.00000001
 46
10.0
 73
     0
 74
     0
 77
     1
140
3.5
143
0.03937
146
1.001485705375671
147
0.762
171
     3
172
     1
176
   256
177
   256
178
   256
179
     2
271
     2
272
     2
274
     3
278
    44
340
91
371
    -1
372
    -1
  0
DIMSTYLE
105
AC
330
A
100
AcDbSymbolTableRecord
100
AcDbDimStyleTableRecord
  2
Obiekt mieszany (ISO)
 70
     0
 40
18.0
 41
2.5
 42
0.0
 43
5.999999999999999
 44
3.174999999999999
 45
0.00000001
 46
10.0
 73
     0
 74
     0
 77
     1
140
5.25
143
0.03937
146
0.6676571965217591
147
0.762
171
     3
172
     1
176
   256
177
   256
178
   256
179
     2
271
     2
272
     2
274
     3
278
    44
340
90
341
9E
371
    -1
372
    -1
  0
DIMSTYLE
105
AD
330
A
100
AcDbSymbolTableRecord
100
AcDbDimStyleTableRecord
  2
Obiekt mieszany (ISO)$7
 70
     0
 40
18.0
 41
5.0
 42
0.0
 43
5.999999999999999
 44
3.174999999999999
 45
0.00000001
 46
10.0
 73
     0
 74
     0
 77
     1
140
5.25
143
0.03937
146
0.6676571965217591
147
0.762
171
     3
172
     1
176
   256
177
   256
178
   256
179
     2
271
     2
272
     2
274
     3
278
    44
340
90
341
9E
371
    25
372
    -1
  0
DIMSTYLE
105
AE
330
A
100
AcDbSymbolTableRecord
100
AcDbDimStyleTableRecord
  2
wibo Domyślne - Metoda 1b (ISO)
 70
     0
 40
18.0
 41
2.5
 42
0.0
 43
5.999999999999999
 44
3.174999999999999
 45
0.00000001
 46
10.0
 73
     0
 77
     1
 78
     8
 79
     2
140
2.0
143
0.03937
147
0.762
171
     3
172
     1
176
   256
177
   256
178
   256
179
     2
271
     2
272
     2
274
     3
278
    44
284
     8
286
     8
340
93
371
    -1
372
    -1
  0
DIMSTYLE
105
AF
330
A
100
AcDbSymbolTableRecord
100
AcDbDimStyleTableRecord
  2
wibo Domyślne - Metoda 1b (ISO)$7
 70
     0
 40
18.0
 41
2.5
 42
0.0
 43
5.999999999999999
 44
3.174999999999999
 45
0.00000001
 46
10.0
 73
     0
 77
     1
 78
     8
 79
     2
140
2.0
143
0.03937
147
0.762
171
     3
172
     1
176
   256
177
   256
178
   256
179
     2
271
     2
272
     2
274
     3
278
    44
284
     8
286
     8
340
93
371
    -1
372
    -1
  0
DIMSTYLE
105
B0
330
A
100
AcDbSymbolTableRecord
100
AcDbDimStyleTableRecord
  2
wibo Domyślne - Metoda 2a (ISO)
 70
     0
 40
18.0
 41
2.5
 42
0.0
 43
5.999999999999999
 44
3.174999999999999
 45
0.00000001
 46
10.0
 77
     1
 78
     8
 79
     2
140
2.0
143
0.03937
146
1.75
147
0.762
171
     3
172
     1
176
   256
177
   256
178
   256
179
     2
271
     2
272
     2
274
     3
278
    44
284
     8
286
     8
340
93
371
    -1
372
    -1
  0
DIMSTYLE
105
B1
330
A
100
AcDbSymbolTableRecord
100
AcDbDimStyleTableRecord
  2
wibo Domyślne - Metoda 2a (ISO)$7
 70
     0
 40
18.0
 41
2.5
 42
0.0
 43
5.999999999999999
 44
3.174999999999999
 45
0.00000001
 46
10.0
 77
     1
 78
     8
 79
     2
140
2.0
143
0.03937
146
1.75
147
0.762
171
     3
172
     1
176
   256
177
   256
178
   256
179
     2
271
     2
272
     2
274
     3
278
    44
284
     8
286
     8
340
93
371
    -1
372
    -1
  0
DIMSTYLE
105
B2
330
A
100
AcDbSymbolTableRecord
100
AcDbDimStyleTableRecord
  2
wibo Domyślne - Metoda 2b (ISO)
 70
     0
 40
18.0
 41
2.5
 42
0.0
 43
5.999999999999999
 44
3.174999999999999
 45
0.00000001
 46
10.0
 77
     1
 78
     8
 79
     2
140
2.0
143
0.03937
146
1.75
147
0.762
171
     3
172
     1
176
   256
177
   256
178
   256
179
     2
271
     2
272
     2
274
     3
278
    44
284
     8
286
     8
340
93
371
    -1
372
    -1
  0
DIMSTYLE
105
B3
330
A
100
AcDbSymbolTableRecord
100
AcDbDimStyleTableRecord
  2
wibo Domyślne - Metoda 2b (ISO)$7
 70
     0
 40
18.0
 41
2.5
 42
0.0
 43
5.999999999999999
 44
3.174999999999999
 45
0.00000001
 46
10.0
 77
     1
 78
     8
 79
     2
140
2.0
143
0.03937
146
1.75
147
0.762
171
     3
172
     1
176
   256
177
   256
178
   256
179
     2
271
     2
272
     2
274
     3
278
    44
284
     8
286
     8
340
93
371
    -1
372
    -1
  0
DIMSTYLE
105
B4
330
A
100
AcDbSymbolTableRecord
100
AcDbDimStyleTableRecord
  2
wibo Domyślne - mm [cale] (ISO)
 70
     0
  4
 cal
 40
18.0
 41
2.5
 42
0.0
 43
5.999999999999999
 44
3.174999999999999
 45
0.00000001
 46
10.0
 73
     0
 74
     0
 77
     1
 78
     8
 79
     2
140
2.0
143
0.03937
146
1.75
147
0.762
170
     1
171
     3
172
     1
176
   256
177
   256
178
   256
179
     3
271
     3
272
     2
274
     3
275
     1
278
    44
284
     8
285
     8
286
     8
340
93
371
    -1
372
    -1
  0
DIMSTYLE
105
B5
330
A
100
AcDbSymbolTableRecord
100
AcDbDimStyleTableRecord
  2
wibo Domyślne - mm [cale] (ISO)$7
 70
     0
  4
 cal
 40
18.0
 41
2.5
 42
0.0
 43
5.999999999999999
 44
3.174999999999999
 45
0.00000001
 46
10.0
 73
     0
 74
     0
 77
     1
 78
     8
 79
     2
140
2.0
143
0.03937
146
1.75
147
0.762
170
     1
171
     3
172
     1
176
   256
177
   256
178
   256
179
     3
271
     3
272
     2
274
     3
275
     1
278
    44
284
     8
285
     8
286
     8
340
93
371
    -1
372
    -1
  0
DIMSTYLE
105
B6
330
A
100
AcDbSymbolTableRecord
100
AcDbDimStyleTableRecord
  2
wibo Domyślne ISO
 70
     0
 40
18.0
 41
2.5
 42
0.0
 43
5.999999999999999
 44
3.174999999999999
 45
0.00000001
 46
10.0
 73
     0
 74
     0
 77
     1
140
2.0
143
0.03937
147
0.762
171
     3
172
     1
176
   256
177
   256
178
   256
179
     1
271
     1
272
     2
274
     3
278
    44
340
93
371
    -1
372
    -1
  0
DIMSTYLE
105
B7
330
A
100
AcDbSymbolTableRecord
100
AcDbDimStyleTableRecord
  2
wibo Domyślne ISO$7
 70
     0
 40
18.0
 41
2.5
 42
0.0
 43
5.999999999999999
 44
3.174999999999999
 45
0.00000001
 46
10.0
 73
     0
 74
     0
 77
     1
140
2.0
143
0.03937
147
0.762
171
     3
172
     1
176
   256
177
   256
178
   256
179
     1
271
     1
272
     2
274
     3
278
    44
340
93
371
    -1
372
    -1
  0
DIMSTYLE
105
B8
330
A
100
AcDbSymbolTableRecord
100
AcDbDimStyleTableRecord
  2
wibo Obiekt mieszany (ISO)
 70
     0
 40
18.0
 41
2.5
 42
0.0
 43
5.999999999999999
 44
3.174999999999999
 45
0.00000001
 46
10.0
 73
     0
 74
     0
 77
     1
140
3.5
143
0.03937
146
1.001485705375671
147
0.762
171
     3
172
     1
176
   256
177
   256
178
   256
179
     2
271
     2
272
     2
274
     3
278
    44
340
92
341
9E
371
    -1
372
    -1
  0
DIMSTYLE
105
B9
330
A
100
AcDbSymbolTableRecord
100
AcDbDimStyleTableRecord
  2
wibo Obiekt mieszany (ISO)$7
 70
     0
 40
18.0
 41
5.0
 42
0.0
 43
5.999999999999999
 44
3.174999999999999
 45
0.00000001
 46
10.0
 73
     0
 74
     0
 77
     1
140
3.5
143
0.03937
146
1.001485705375671
147
0.762
171
     3
172
     1
176
   256
177
   256
178
   256
179
     2
271
     2
272
     2
274
     3
278
    44
340
92
341
9E
371
    25
372
    -1
  0
DIMSTYLE
105
BA
330
A
100
AcDbSymbolTableRecord
100
AcDbDimStyleTableRecord
  2
Dodatkowy (ISO)
 70
     0
 40
18.0
 41
2.5
340
55
342
BB
  0
DIMSTYLE
105
CC
330
A
100
AcDbSymbolTableRecord
100
AcDbDimStyleTableRecord
  2
Odniesienie (ISO)
 70
     0
 40
18.0
 41
2.5
340
55
342
BB
  0
ENDTAB
  0
TABLE
  2
BLOCK_RECORD
  5
1
330
0
100
AcDbSymbolTable
 70
     6
  0
BLOCK_RECORD
  5
6C
330
1
100
AcDbSymbolTableRecord
100
AcDbBlockTableRecord
  2
*Model_Space
340
6F
  0
BLOCK_RECORD
  5
68
330
1
100
AcDbSymbolTableRecord
100
AcDbBlockTableRecord
  2
*Paper_Space
340
6B
  0
BLOCK_RECORD
  5
70
330
1
100
AcDbSymbolTableRecord
100
AcDbBlockTableRecord
  2
*Paper_Space0
340
73
  0
BLOCK_RECORD
  5
9E
330
1
100
AcDbSymbolTableRecord
100
AcDbBlockTableRecord
  2
Filled-1
340
0
  0
BLOCK_RECORD
  5
BB
330
1
100
AcDbSymbolTableRecord
100
AcDbBlockTableRecord
  2
_Closed
340
0
  0
BLOCK_RECORD
  5
C2
330
1
100
AcDbSymbolTableRecord
100
AcDbBlockTableRecord
  2
DatumFilled45
340
0
  0
BLOCK_RECORD
  5
CD
330
1
100
AcDbSymbolTableRecord
100
AcDbBlockTableRecord
  2
Ilość kompletów
340
0
  0
BLOCK_RECORD
  5
DB
330
1
100
AcDbSymbolTableRecord
100
AcDbBlockTableRecord
  2
Skala
340
0
  0
ENDTAB
  0
ENDSEC
  0
SECTION
  2
BLOCKS
  0
BLOCK
  5
6D
330
6C
100
AcDbEntity
  8
0
100
AcDbBlockBegin
  2
*Model_Space
 70
     0
 10
0.0
 20
0.0
 30
0.0
  3
*Model_Space
  1

  0
ENDBLK
  5
6E
330
6C
100
AcDbEntity
  8
0
100
AcDbBlockEnd
  0
BLOCK
  5
69
330
68
100
AcDbEntity
 67
     1
  8
0
100
AcDbBlockBegin
  2
*Paper_Space
 70
     0
 10
0.0
 20
0.0
 30
0.0
  3
*Paper_Space
  1

  0
ENDBLK
  5
6A
330
68
100
AcDbEntity
 67
     1
  8
0
100
AcDbBlockEnd
  0
BLOCK
  5
71
330
70
100
AcDbEntity
 67
     1
  8
0
100
AcDbBlockBegin
  2
*Paper_Space0
 70
     0
 10
0.0
 20
0.0
 30
0.0
  3
*Paper_Space0
  1

  0
ENDBLK
  5
72
330
70
100
AcDbEntity
 67
     1
  8
0
100
AcDbBlockEnd
  0
BLOCK
  5
9F
330
9E
100
AcDbEntity
  8
0
100
AcDbBlockBegin
  2
Filled-1
 70
     0
 10
0.0
 20
0.0
 30
0.0
  3
Filled-1
  1

  0
LINE
  5
A1
330
9E
100
AcDbEntity
  8
0
 62
     0
100
AcDbLine
 10
-1.0
 20
0.0
 30
0.0
 11
0.0
 21
0.0
 31
0.0
  0
POLYLINE
  5
A2
330
9E
100
AcDbEntity
  8
0
 62
     0
100
AcDb2dPolyline
 66
     1
 10
0.0
 20
0.0
 30
0.0
 70
   128
  0
VERTEX
  5
A3
330
A2
100
AcDbEntity
  8
0
 62
     0
100
AcDbVertex
100
AcDb2dVertex
 10
-1.0
 20
-0.1
 30
0.0
  0
VERTEX
  5
A4
330
A2
100
AcDbEntity
  8
0
 62
     0
100
AcDbVertex
100
AcDb2dVertex
 10
0.0
 20
0.0
 30
0.0
  0
VERTEX
  5
A6
330
A2
100
AcDbEntity
  8
0
 62
     0
100
AcDbVertex
100
AcDb2dVertex
 10
-1.0
 20
0.1
 30
0.0
  0
VERTEX
  5
A7
330
A2
100
AcDbEntity
  8
0
 62
     0
100
AcDbVertex
100
AcDb2dVertex
 10
-1.0
 20
-0.1
 30
0.0
  0
SEQEND
  5
A5
330
A2
100
AcDbEntity
  8
0
 62
     0
  0
SOLID
  5
A8
330
9E
100
AcDbEntity
  8
0
 62
     0
100
AcDbTrace
 10
-1.0
 20
-0.1
 30
0.0
 11
0.0
 21
0.0
 31
0.0
 12
-1.0
 22
0.1
 32
0.0
 13
-1.0
 23
-0.1
 33
0.0
  0
LINE
  5
A9
330
9E
100
AcDbEntity
  8
0
 62
     0
100
AcDbLine
 10
-1.0
 20
-0.1
 30
0.0
 11
0.0
 21
0.0
 31
0.0
  0
LINE
  5
AA
330
9E
100
AcDbEntity
  8
0
 62
     0
100
AcDbLine
 10
0.0
 20
0.0
 30
0.0
 11
-1.0
 21
0.1
 31
0.0
  0
LINE
  5
AB
330
9E
100
AcDbEntity
  8
0
 62
     0
100
AcDbLine
 10
-1.0
 20
0.1
 30
0.0
 11
-1.0
 21
-0.1
 31
0.0
  0
ENDBLK
  5
A0
330
9E
100
AcDbEntity
  8
0
100
AcDbBlockEnd
  0
BLOCK
  5
C0
330
BB
100
AcDbEntity
  8
0
100
AcDbBlockBegin
  2
_Closed
 70
     0
 10
0.0
 20
0.0
 30
0.0
  3
_Closed
  1

  0
LINE
  5
BC
330
BB
100
AcDbEntity
  8
0
  6
ByBlock
 62
     0
370
    -2
100
AcDbLine
 10
-1.0
 20
0.1666666666666666
 30
0.0
 11
0.0
 21
0.0
 31
0.0
  0
LINE
  5
BD
330
BB
100
AcDbEntity
  8
0
  6
ByBlock
 62
     0
370
    -2
100
AcDbLine
 10
0.0
 20
0.0
 30
0.0
 11
-1.0
 21
-0.1666666666666666
 31
0.0
  0
LINE
  5
BE
330
BB
100
AcDbEntity
  8
0
  6
ByBlock
 62
     0
370
    -2
100
AcDbLine
 10
-1.0
 20
0.1666666666666666
 30
0.0
 11
-1.0
 21
-0.1666666666666666
 31
0.0
  0
LINE
  5
BF
330
BB
100
AcDbEntity
  8
0
  6
ByBlock
 62
     0
370
    -2
100
AcDbLine
 10
0.0
 20
0.0
 30
0.0
 11
-1.0
 21
0.0
 31
0.0
  0
ENDBLK
  5
C1
330
BB
100
AcDbEntity
  8
0
100
AcDbBlockEnd
  0
BLOCK
  5
C3
330
C2
100
AcDbEntity
  8
0
100
AcDbBlockBegin
  2
DatumFilled45
 70
     0
 10
0.0
 20
0.0
 30
0.0
  3
DatumFilled45
  1

  0
POLYLINE
  5
C5
330
C2
100
AcDbEntity
  8
0
 62
     0
100
AcDb2dPolyline
 66
     1
 10
0.0
 20
0.0
 30
0.0
 70
   128
  0
VERTEX
  5
C6
330
C5
100
AcDbEntity
  8
0
 62
     0
100
AcDbVertex
100
AcDb2dVertex
 10
0.0
 20
1.0
 30
0.0
  0
VERTEX
  5
C7
330
C5
100
AcDbEntity
  8
0
 62
     0
100
AcDbVertex
100
AcDb2dVertex
 10
0.0
 20
-1.0
 30
0.0
  0
VERTEX
  5
C9
330
C5
100
AcDbEntity
  8
0
 62
     0
100
AcDbVertex
100
AcDb2dVertex
 10
-1.0
 20
0.0
 30
0.0
  0
VERTEX
  5
CA
330
C5
100
AcDbEntity
  8
0
 62
     0
100
AcDbVertex
100
AcDb2dVertex
 10
0.0
 20
1.0
 30
0.0
  0
SEQEND
  5
C8
330
C5
100
AcDbEntity
  8
0
 62
     0
  0
SOLID
  5
CB
330
C2
100
AcDbEntity
  8
0
 62
     0
100
AcDbTrace
 10
0.0
 20
1.0
 30
0.0
 11
0.0
 21
-1.0
 31
0.0
 12
-1.0
 22
0.0
 32
0.0
 13
0.0
 23
1.0
 33
0.0
  0
ENDBLK
  5
C4
330
C2
100
AcDbEntity
  8
0
100
AcDbBlockEnd
  0
BLOCK
  5
CE
330
CD
100
AcDbEntity
  8
0
100
AcDbBlockBegin
  2
Ilość kompletów
 70
     0
 10
0.0
 20
0.0
 30
0.0
  3
Ilość kompletów
  1

  0
LINE
  5
D0
330
CD
100
AcDbEntity
  8
Geometria szkicu (ISO)
100
AcDbLine
 10
65.0
 20
-5.999999999999978
 30
0.0
 11
-65.0
 21
-6.000000000000014
 31
0.0
  0
LINE
  5
D1
330
CD
100
AcDbEntity
  8
Geometria szkicu (ISO)
100
AcDbLine
 10
-65.0
 20
-6.000000000000014
 30
0.0
 11
-65.0
 21
5.99999999999996
 31
0.0
  0
LINE
  5
D2
330
CD
100
AcDbEntity
  8
Geometria szkicu (ISO)
100
AcDbLine
 10
-65.0
 20
5.99999999999996
 30
0.0
 11
65.0
 21
6.000000000000014
 31
0.0
  0
LINE
  5
D3
330
CD
100
AcDbEntity
  8
Geometria szkicu (ISO)
100
AcDbLine
 10
65.0
 20
6.000000000000014
 30
0.0
 11
65.0
 21
-5.999999999999978
 31
0.0
  0
LINE
  5
D4
330
CD
100
AcDbEntity
  8
Geometria szkicu (ISO)
100
AcDbLine
 10
-65.0
 20
0.0
 30
0.0
 11
65.0
 21
0.0
 31
0.0
  0
LINE
  5
D5
330
CD
100
AcDbEntity
  8
Geometria szkicu (ISO)
100
AcDbLine
 10
-34.99999999999999
 20
5.999999999999978
 30
0.0
 11
-34.99999999999999
 21
-5.999999999999996
 31
0.0
  0
LINE
  5
D6
330
CD
100
AcDbEntity
  8
Geometria szkicu (ISO)
100
AcDbLine
 10
5.0
 20
5.999999999999996
 30
0.0
 11
5.0
 21
-5.999999999999978
 31
0.0
  0
MTEXT
  5
D7
330
CD
100
AcDbEntity
  8
Symbol (ISO)
100
AcDbMText
 10
5.0
 20
3.000000000000007
 30
0.0
 40
2.000000029802322
 41
60.0
 71
     4
 72
     1
  1
 Uwagi
  7
wibo Tekst notatki (ISO)
 73
     1
 44
1.0
1001
ACAD
1000
MTEXTBEGIN
1070
    73
1070
     1
1070
    44
1040
1.0
1070
    74
1070
     0
1000
MTEXTEND
  0
MTEXT
  5
D9
330
CD
100
AcDbEntity
  8
Symbol (ISO)
100
AcDbMText
 10
-34.99999999999999
 20
2.999999999999989
 30
0.0
 40
2.000000029802322
 41
39.99999999999995
 71
     4
 72
     1
  1
 Powierzchnia
  7
wibo Tekst notatki (ISO)
 73
     1
 44
1.0
1001
ACAD
1000
MTEXTBEGIN
1070
    73
1070
     1
1070
    44
1040
1.0
1070
    74
1070
     0
1000
MTEXTEND
  0
MTEXT
  5
DA
102
{ACAD_XDICTIONARY
360
5BB
102
}
330
CD
100
AcDbEntity
  8
Symbol (ISO)
100
AcDbMText
 10
-65.0
 20
2.999999999999953
 30
0.0
 40
2.000000029802322
 41
30.0
 71
     4
 72
     1
  1
 Ilo\U+015B\U+0107 komplet\U+00F3w
  7
wibo Tekst notatki (ISO)
 73
     1
 44
1.0
1001
ACAD
1000
MTEXTBEGIN
1070
    73
1070
     1
1070
    44
1040
1.0
1070
    74
1070
     0
1000
MTEXTEND
  0
ENDBLK
  5
CF
330
CD
100
AcDbEntity
  8
0
100
AcDbBlockEnd
  0
BLOCK
  5
DC
330
DB
100
AcDbEntity
  8
0
100
AcDbBlockBegin
  2
Skala
 70
     0
 10
0.0
 20
0.0
 30
0.0
  3
Skala
  1

  0
LINE
  5
DE
330
DB
100
AcDbEntity
  8
Wymiar (ISO)
100
AcDbLine
 10
0.0
 20
0.999999999999992
 30
0.0
 11
50.0
 21
1.0
 31
0.0
  0
LINE
  5
DF
330
DB
100
AcDbEntity
  8
Wymiar (ISO)
100
AcDbLine
 10
-50.0
 20
-1.0
 30
0.0
 11
-50.0
 21
0.0
 31
0.0
  0
LINE
  5
E0
330
DB
100
AcDbEntity
  8
Wymiar (ISO)
100
AcDbLine
 10
-50.0
 20
0.9999999999999786
 30
0.0
 11
-50.0
 21
0.0
 31
0.0
  0
LINE
  5
E1
330
DB
100
AcDbEntity
  8
Wymiar (ISO)
100
AcDbLine
 10
-50.0
 20
0.9999999999999786
 30
0.0
 11
-49.0
 21
0.9999999999999742
 31
0.0
  0
LINE
  5
E2
330
DB
100
AcDbEntity
  8
Wymiar (ISO)
100
AcDbLine
 10
-50.0
 20
0.0
 30
0.0
 11
50.0
 21
0.0
 31
0.0
  0
LINE
  5
E3
330
DB
100
AcDbEntity
  8
Wymiar (ISO)
100
AcDbLine
 10
0.0
 20
-0.999999999999992
 30
0.0
 11
-24.99999999999993
 21
-1.0
 31
0.0
  0
LINE
  5
E4
330
DB
100
AcDbEntity
  8
Wymiar (ISO)
100
AcDbLine
 10
-24.99999999999993
 20
0.9999999999999742
 30
0.0
 11
-39.99999999999993
 21
0.9999999999999786
 31
0.0
  0
LINE
  5
E5
330
DB
100
AcDbEntity
  8
Wymiar (ISO)
100
AcDbLine
 10
-39.99999999999993
 20
-1.0
 30
0.0
 11
-44.99999999999992
 21
-1.0
 31
0.0
  0
LINE
  5
E6
330
DB
100
AcDbEntity
  8
Wymiar (ISO)
100
AcDbLine
 10
-44.99999999999992
 20
-1.0
 30
0.0
 11
-39.99999999999993
 21
-1.0
 31
0.0
  0
MTEXT
  5
E7
330
DB
100
AcDbEntity
  8
Obramowanie (ISO)
100
AcDbMText
 10
51.0
 20
0.5000000000000027
 30
0.0
 40
1.000000014901161
 41
0.0
 71
     1
 72
     1
  1
\fTahoma|b0|i0;\H1.0000;1,47 A3
  7
wibo Tekst notatki (ISO)
 73
     1
 44
1.0
1001
ACAD
1000
MTEXTBEGIN
1070
    73
1070
     1
1070
    44
1040
1.0
1070
    74
1070
     0
1000
MTEXTEND
  0
ENDBLK
  5
DD
330
DB
100
AcDbEntity
  8
0
100
AcDbBlockEnd
  0
ENDSEC
  0
SECTION
  2
ENTITIES
  0
LINE
  5
E8
330
6C
100
AcDbEntity
  8
Widoczne (ISO)
100
AcDbLine
 10
2811.173339839272
 20
2845.885740973413
 30
0.0
 11
3261.173339839273
 21
2845.885740973413
 31
0.0
  0
LINE
  5
E9
330
6C
100
AcDbEntity
  8
Widoczne (ISO)
100
AcDbLine
 10
3261.173339839273
 20
2845.885740973413
 30
0.0
 11
3261.173339839273
 21
3025.885740973413
 31
0.0
  0
LINE
  5
EA
330
6C
100
AcDbEntity
  8
Widoczne (ISO)
100
AcDbLine
 10
3261.173339839273
 20
3025.885740973413
 30
0.0
 11
2811.173339839272
 21
3025.885740973413
 31
0.0
  0
LINE
  5
EB
330
6C
100
AcDbEntity
  8
Widoczne (ISO)
100
AcDbLine
 10
2811.173339839272
 20
3025.885740973413
 30
0.0
 11
2811.173339839272
 21
2845.885740973413
 31
0.0
  0
LINE
  5
EC
330
6C
100
AcDbEntity
  8
Widoczne (ISO)
100
AcDbLine
 10
561.1733398392714
 20
2845.885740973413
 30
0.0
 11
1011.173339839272
 21
2845.885740973413
 31
0.0
  0
LINE
  5
ED
330
6C
100
AcDbEntity
  8
Widoczne (ISO)
100
AcDbLine
 10
1011.173339839272
 20
2845.885740973413
 30
0.0
 11
1011.173339839272
 21
3025.885740973413
 31
0.0
  0
LINE
  5
EE
330
6C
100
AcDbEntity
  8
Widoczne (ISO)
100
AcDbLine
 10
1011.173339839272
 20
3025.885740973413
 30
0.0
 11
561.1733398392714
 21
3025.885740973413
 31
0.0
  0
LINE
  5
EF
330
6C
100
AcDbEntity
  8
Widoczne (ISO)
100
AcDbLine
 10
561.1733398392714
 20
3025.885740973413
 30
0.0
 11
561.1733398392714
 21
2845.885740973413
 31
0.0
  0
LINE
  5
F0
330
6C
100
AcDbEntity
  8
Widoczne (ISO)
100
AcDbLine
 10
3261.173339839273
 20
2845.885740973413
 30
0.0
 11
3261.173339839273
 21
2485.885740973413
 31
0.0
  0
LINE
  5
F1
330
6C
100
AcDbEntity
  8
Widoczne (ISO)
100
AcDbLine
 10
3261.173339839273
 20
3385.885740973413
 30
0.0
 11
3261.173339839273
 21
3025.885740973413
 31
0.0
  0
LINE
  5
F2
330
6C
100
AcDbEntity
  8
Widoczne (ISO)
100
AcDbLine
 10
3261.173339839273
 20
2485.885740973413
 30
0.0
 11
2034.365946799002
 21
2485.885740973413
 31
0.0
  0
LINE
  5
F3
330
6C
100
AcDbEntity
  8
Widoczne (ISO)
100
AcDbLine
 10
1967.414556820212
 20
2485.885740973413
 30
0.0
 11
561.1733398392721
 21
2485.885740973413
 31
0.0
  0
LINE
  5
F4
330
6C
100
AcDbEntity
  8
Widoczne (ISO)
100
AcDbLine
 10
561.1733398392714
 20
3025.885740973413
 30
0.0
 11
561.1733398392721
 21
3385.885740973413
 31
0.0
  0
LINE
  5
F5
330
6C
100
AcDbEntity
  8
Widoczne (ISO)
100
AcDbLine
 10
561.1733398392721
 20
2485.885740973413
 30
0.0
 11
561.1733398392714
 21
2845.885740973413
 31
0.0
  0
LINE
  5
F6
330
6C
100
AcDbEntity
  8
Widoczne (ISO)
100
AcDbLine
 10
561.1733398392721
 20
3385.885740973413
 30
0.0
 11
3261.173339839273
 21
3385.885740973413
 31
0.0
  0
ARC
  5
F7
330
6C
100
AcDbEntity
  8
Widoczne (ISO)
100
AcDbCircle
 10
838.1933398392638
 20
2838.865740973412
 30
0.0
 40
7.020000000000011
100
AcDbArc
 50
90.0
 51
180.0
  0
LINE
  5
F8
330
6C
100
AcDbEntity
  8
Widoczne (ISO)
100
AcDbLine
 10
831.1733398392638
 20
2838.865740973412
 30
0.0
 11
831.1733398392638
 21
2780.905740973413
 31
0.0
  0
ARC
  5
F9
330
6C
100
AcDbEntity
  8
Widoczne (ISO)
100
AcDbCircle
 10
838.1933398392638
 20
2780.905740973413
 30
0.0
 40
7.020000000000001
100
AcDbArc
 50
180.0
 51
270.0
  0
LINE
  5
FA
330
6C
100
AcDbEntity
  8
Widoczne (ISO)
100
AcDbLine
 10
838.1933398392638
 20
2773.885740973412
 30
0.0
 11
869.4233398392638
 21
2773.885740973412
 31
0.0
  0
LINE
  5
FB
330
6C
100
AcDbEntity
  8
Widoczne (ISO)
100
AcDbLine
 10
869.4233398392638
 20
2773.885740973412
 30
0.0
 11
869.4233398392638
 21
2776.585740973413
 31
0.0
  0
LINE
  5
FC
330
6C
100
AcDbEntity
  8
Widoczne (ISO)
100
AcDbLine
 10
869.4233398392638
 20
2776.585740973413
 30
0.0
 11
838.1933398392638
 21
2776.585740973413
 31
0.0
  0
ARC
  5
FD
330
6C
100
AcDbEntity
  8
Widoczne (ISO)
100
AcDbCircle
 10
838.1933398392638
 20
2780.905740973413
 30
0.0
 40
4.320000000000002
100
AcDbArc
 50
180.0
 51
270.0
  0
LINE
  5
FE
330
6C
100
AcDbEntity
  8
Widoczne (ISO)
100
AcDbLine
 10
833.8733398392637
 20
2780.905740973413
 30
0.0
 11
833.8733398392637
 21
2838.865740973412
 31
0.0
  0
ARC
  5
FF
330
6C
100
AcDbEntity
  8
Widoczne (ISO)
100
AcDbCircle
 10
838.1933398392638
 20
2838.865740973412
 30
0.0
 40
4.319999999999998
100
AcDbArc
 50
90.0
 51
180.0
  0
LINE
  5
100
330
6C
100
AcDbEntity
  8
Widoczne (ISO)
100
AcDbLine
 10
838.1933398392638
 20
2843.185740973412
 30
0.0
 11
852.7733398392637
 21
2843.185740973412
 31
0.0
  0
LINE
  5
101
330
6C
100
AcDbEntity
  8
Widoczne (ISO)
100
AcDbLine
 10
852.7733398392637
 20
2843.185740973412
 30
0.0
 11
852.7733398392637
 21
2845.885740973412
 31
0.0
  0
LINE
  5
102
330
6C
100
AcDbEntity
  8
Widoczne (ISO)
100
AcDbLine
 10
852.7733398392637
 20
2845.885740973412
 30
0.0
 11
838.1933398392638
 21
2845.885740973412
 31
0.0
  0
LINE
  5
103
330
6C
100
AcDbEntity
  8
Widoczne (ISO)
100
AcDbLine
 10
1043.573339839264
 20
2845.885740973412
 30
0.0
 11
1043.573339839264
 21
2843.185740973412
 31
0.0
  0
LINE
  5
104
330
6C
100
AcDbEntity
  8
Widoczne (ISO)
100
AcDbLine
 10
1043.573339839264
 20
2843.185740973412
 30
0.0
 11
1058.153339839263
 21
2843.185740973412
 31
0.0
  0
ARC
  5
105
330
6C
100
AcDbEntity
  8
Widoczne (ISO)
100
AcDbCircle
 10
1058.153339839263
 20
2838.865740973412
 30
0.0
 40
4.319999999999996
100
AcDbArc
 50
0.0
 51
90.0
  0
LINE
  5
106
330
6C
100
AcDbEntity
  8
Widoczne (ISO)
100
AcDbLine
 10
1062.473339839264
 20
2838.865740973412
 30
0.0
 11
1062.473339839264
 21
2780.905740973413
 31
0.0
  0
ARC
  5
107
330
6C
100
AcDbEntity
  8
Widoczne (ISO)
100
AcDbCircle
 10
1058.153339839263
 20
2780.905740973413
 30
0.0
 40
4.319999999999971
100
AcDbArc
 50
270.0
 51
0.0
  0
LINE
  5
108
330
6C
100
AcDbEntity
  8
Widoczne (ISO)
100
AcDbLine
 10
1058.153339839263
 20
2776.585740973413
 30
0.0
 11
908.1233398392638
 21
2776.585740973413
 31
0.0
  0
LINE
  5
109
330
6C
100
AcDbEntity
  8
Widoczne (ISO)
100
AcDbLine
 10
908.1233398392638
 20
2776.585740973413
 30
0.0
 11
908.1233398392638
 21
2773.885740973412
 31
0.0
  0
LINE
  5
10A
330
6C
100
AcDbEntity
  8
Widoczne (ISO)
100
AcDbLine
 10
908.1233398392638
 20
2773.885740973412
 30
0.0
 11
1058.153339839263
 21
2773.885740973412
 31
0.0
  0
ARC
  5
10B
330
6C
100
AcDbEntity
  8
Widoczne (ISO)
100
AcDbCircle
 10
1058.153339839263
 20
2780.905740973413
 30
0.0
 40
7.020000000000002
100
AcDbArc
 50
270.0
 51
0.0
  0
LINE
  5
10C
330
6C
100
AcDbEntity
  8
Widoczne (ISO)
100
AcDbLine
 10
1065.173339839263
 20
2780.905740973413
 30
0.0
 11
1065.173339839263
 21
2838.865740973412
 31
0.0
  0
ARC
  5
10D
330
6C
100
AcDbEntity
  8
Widoczne (ISO)
100
AcDbCircle
 10
1058.153339839263
 20
2838.865740973412
 30
0.0
 40
7.019999999999977
100
AcDbArc
 50
0.0
 51
90.0
  0
LINE
  5
10E
330
6C
100
AcDbEntity
  8
Widoczne (ISO)
100
AcDbLine
 10
1058.153339839263
 20
2845.885740973412
 30
0.0
 11
1043.573339839264
 21
2845.885740973412
 31
0.0
  0
LINE
  5
10F
330
6C
100
AcDbEntity
  8
Widoczne (ISO)
100
AcDbLine
 10
869.4233398392638
 20
2776.585740973413
 30
0.0
 11
869.7332341410277
 21
2776.585740973413
 31
0.0
  0
LINE
  5
110
330
6C
100
AcDbEntity
  8
Widoczne (ISO)
100
AcDbLine
 10
886.9733398392638
 20
2776.585740973413
 30
0.0
 11
890.5733398392639
 21
2776.585740973413
 31
0.0
  0
LINE
  5
111
330
6C
100
AcDbEntity
  8
Widoczne (ISO)
100
AcDbLine
 10
907.8134455374998
 20
2776.585740973413
 30
0.0
 11
908.1233398392638
 21
2776.585740973413
 31
0.0
  0
ARC
  5
112
330
6C
100
AcDbEntity
  8
Widoczne (ISO)
100
AcDbCircle
 10
1045.283339839255
 20
3027.775740973412
 30
0.0
 40
1.889999999999986
100
AcDbArc
 50
180.0
 51
0.0
  0
LINE
  5
113
330
6C
100
AcDbEntity
  8
Widoczne (ISO)
100
AcDbLine
 10
1047.173339839255
 20
3027.775740973412
 30
0.0
 11
1047.173339839361
 21
3046.405740973304
 31
0.0
  0
ARC
  5
114
330
6C
100
AcDbEntity
  8
Widoczne (ISO)
100
AcDbCircle
 10
1042.493339839255
 20
3046.405740973412
 30
0.0
 40
4.679999999999965
100
AcDbArc
 50
0.0
 51
89.99999999998633
  0
LINE
  5
115
330
6C
100
AcDbEntity
  8
Widoczne (ISO)
100
AcDbLine
 10
1042.493339839256
 20
3051.085740973412
 30
0.0
 11
908.1233398392564
 21
3051.085740973412
 31
0.0
  0
LINE
  5
116
330
6C
100
AcDbEntity
  8
Widoczne (ISO)
100
AcDbLine
 10
908.1233398392564
 20
3051.085740973412
 30
0.0
 11
908.1233398392564
 21
3049.285740973412
 31
0.0
  0
LINE
  5
117
330
6C
100
AcDbEntity
  8
Widoczne (ISO)
100
AcDbLine
 10
908.1233398392564
 20
3049.285740973412
 30
0.0
 11
1042.493339839256
 21
3049.285740973412
 31
0.0
  0
ARC
  5
118
330
6C
100
AcDbEntity
  8
Widoczne (ISO)
100
AcDbCircle
 10
1042.493339839255
 20
3046.405740973412
 30
0.0
 40
2.879999999999979
100
AcDbArc
 50
0.0
 51
89.9999999999777
  0
LINE
  5
119
330
6C
100
AcDbEntity
  8
Widoczne (ISO)
100
AcDbLine
 10
1045.373339839362
 20
3046.405740973304
 30
0.0
 11
1045.373339839255
 21
3027.775740973412
 31
0.0
  0
ARC
  5
11A
330
6C
100
AcDbEntity
  8
Widoczne (ISO)
100
AcDbCircle
 10
1045.283339839255
 20
3027.775740973412
 30
0.0
 40
0.0899999999999994
100
AcDbArc
 50
180.0
 51
0.0
  0
LINE
  5
11B
330
6C
100
AcDbEntity
  8
Widoczne (ISO)
100
AcDbLine
 10
1045.193339839255
 20
3027.775740973412
 30
0.0
 11
1045.193339839255
 21
3044.425740973413
 31
0.0
  0
ARC
  5
11C
330
6C
100
AcDbEntity
  8
Widoczne (ISO)
100
AcDbCircle
 10
1040.513339839255
 20
3044.425740973413
 30
0.0
 40
4.679999999999965
100
AcDbArc
 50
0.0
 51
89.99999999999804
  0
LINE
  5
11D
330
6C
100
AcDbEntity
  8
Widoczne (ISO)
100
AcDbLine
 10
1040.513339839256
 20
3049.105740973412
 30
0.0
 11
1010.993339839256
 21
3049.105740973413
 31
0.0
  0
LINE
  5
11E
330
6C
100
AcDbEntity
  8
Widoczne (ISO)
100
AcDbLine
 10
1010.993339839256
 20
3049.105740973413
 30
0.0
 11
1010.993339839256
 21
3047.305740973412
 31
0.0
  0
LINE
  5
11F
330
6C
100
AcDbEntity
  8
Widoczne (ISO)
100
AcDbLine
 10
1010.993339839256
 20
3047.305740973412
 30
0.0
 11
1040.513339839256
 21
3047.305740973412
 31
0.0
  0
ARC
  5
120
330
6C
100
AcDbEntity
  8
Widoczne (ISO)
100
AcDbCircle
 10
1040.513339839255
 20
3044.425740973413
 30
0.0
 40
2.879999999999979
100
AcDbArc
 50
0.0
 51
89.99999999999682
  0
LINE
  5
121
330
6C
100
AcDbEntity
  8
Widoczne (ISO)
100
AcDbLine
 10
1043.393339839255
 20
3044.425740973413
 30
0.0
 11
1043.393339839255
 21
3027.775740973412
 31
0.0
  0
LINE
  5
122
330
6C
100
AcDbEntity
  8
Widoczne (ISO)
100
AcDbLine
 10
835.8533398392559
 20
3049.285740973412
 30
0.0
 11
869.4233398392567
 21
3049.285740973412
 31
0.0
  0
LINE
  5
123
330
6C
100
AcDbEntity
  8
Widoczne (ISO)
100
AcDbLine
 10
869.4233398392567
 20
3049.285740973412
 30
0.0
 11
869.4233398392567
 21
3051.085740973412
 31
0.0
  0
LINE
  5
124
330
6C
100
AcDbEntity
  8
Widoczne (ISO)
100
AcDbLine
 10
869.4233398392567
 20
3051.085740973412
 30
0.0
 11
835.8533398392559
 21
3051.085740973412
 31
0.0
  0
ARC
  5
125
330
6C
100
AcDbEntity
  8
Widoczne (ISO)
100
AcDbCircle
 10
835.8533398392573
 20
3046.405740973412
 30
0.0
 40
4.679999999999975
100
AcDbArc
 50
90.0000000000176
 51
180.0
  0
LINE
  5
126
330
6C
100
AcDbEntity
  8
Widoczne (ISO)
100
AcDbLine
 10
831.1733398392574
 20
3046.405740973411
 30
0.0
 11
831.1733398392567
 21
3030.565740973413
 31
0.0
  0
ARC
  5
127
330
6C
100
AcDbEntity
  8
Widoczne (ISO)
100
AcDbCircle
 10
835.8533398392566
 20
3030.565740973413
 30
0.0
 40
4.680000000000026
100
AcDbArc
 50
180.0
 51
270.0
  0
LINE
  5
128
330
6C
100
AcDbEntity
  8
Widoczne (ISO)
100
AcDbLine
 10
835.8533398392566
 20
3025.885740973413
 30
0.0
 11
845.5733398392565
 21
3025.885740973413
 31
0.0
  0
LINE
  5
129
330
6C
100
AcDbEntity
  8
Widoczne (ISO)
100
AcDbLine
 10
845.5733398392565
 20
3025.885740973413
 30
0.0
 11
845.5733398392565
 21
3027.685740973413
 31
0.0
  0
LINE
  5
12A
330
6C
100
AcDbEntity
  8
Widoczne (ISO)
100
AcDbLine
 10
845.5733398392565
 20
3027.685740973413
 30
0.0
 11
835.8533398392566
 21
3027.685740973413
 31
0.0
  0
ARC
  5
12B
330
6C
100
AcDbEntity
  8
Widoczne (ISO)
100
AcDbCircle
 10
835.8533398392566
 20
3030.565740973413
 30
0.0
 40
2.880000000000037
100
AcDbArc
 50
180.0
 51
270.0
  0
LINE
  5
12C
330
6C
100
AcDbEntity
  8
Widoczne (ISO)
100
AcDbLine
 10
832.9733398392567
 20
3030.565740973413
 30
0.0
 11
832.9733398392573
 21
3046.405740973411
 31
0.0
  0
ARC
  5
12D
330
6C
100
AcDbEntity
  8
Widoczne (ISO)
100
AcDbCircle
 10
835.8533398392573
 20
3046.405740973412
 30
0.0
 40
2.879999999999981
100
AcDbArc
 50
90.00000000002223
 51
180.0
  0
LINE
  5
12E
330
6C
100
AcDbEntity
  8
Widoczne (ISO)
100
AcDbLine
 10
908.1233398392564
 20
3049.285740973412
 30
0.0
 11
907.5874303035883
 21
3049.285740973412
 31
0.0
  0
LINE
  5
12F
330
6C
100
AcDbEntity
  8
Widoczne (ISO)
100
AcDbLine
 10
890.573339839258
 20
3049.285740973412
 30
0.0
 11
886.9733398392581
 21
3049.285740973412
 31
0.0
  0
LINE
  5
130
330
6C
100
AcDbEntity
  8
Widoczne (ISO)
100
AcDbLine
 10
869.9592493749282
 20
3049.285740973412
 30
0.0
 11
869.4233398392565
 21
3049.285740973412
 31
0.0
  0
LINE
  5
131
330
6C
100
AcDbEntity
  8
Widoczne (ISO)
100
AcDbLine
 10
2811.353339839235
 20
3049.105740973412
 30
0.0
 11
2781.833339839235
 21
3049.105740973411
 31
0.0
  0
ARC
  5
132
330
6C
100
AcDbEntity
  8
Widoczne (ISO)
100
AcDbCircle
 10
2781.833339839235
 20
3044.425740973412
 30
0.0
 40
4.67999999999996
100
AcDbArc
 50
90.00000000001175
 51
180.0
  0
LINE
  5
133
330
6C
100
AcDbEntity
  8
Widoczne (ISO)
100
AcDbLine
 10
2777.153339839235
 20
3044.425740973412
 30
0.0
 11
2777.153339839235
 21
3027.775740973412
 31
0.0
  0
ARC
  5
134
330
6C
100
AcDbEntity
  8
Widoczne (ISO)
100
AcDbCircle
 10
2777.063339839235
 20
3027.775740973412
 30
0.0
 40
0.0899999999999993
100
AcDbArc
 50
180.0
 51
0.0
  0
LINE
  5
135
330
6C
100
AcDbEntity
  8
Widoczne (ISO)
100
AcDbLine
 10
2776.973339839235
 20
3027.775740973412
 30
0.0
 11
2776.973339839216
 21
3046.405740973392
 31
0.0
  0
ARC
  5
136
330
6C
100
AcDbEntity
  8
Widoczne (ISO)
100
AcDbCircle
 10
2779.853339839235
 20
3046.405740973412
 30
0.0
 40
2.879999999999977
100
AcDbArc
 50
90.00000000002543
 51
180.0
  0
LINE
  5
137
330
6C
100
AcDbEntity
  8
Widoczne (ISO)
100
AcDbLine
 10
2779.853339839234
 20
3049.285740973412
 30
0.0
 11
2914.223339839233
 21
3049.285740973412
 31
0.0
  0
LINE
  5
138
330
6C
100
AcDbEntity
  8
Widoczne (ISO)
100
AcDbLine
 10
2914.223339839233
 20
3049.285740973412
 30
0.0
 11
2914.223339839233
 21
3051.085740973412
 31
0.0
  0
LINE
  5
139
330
6C
100
AcDbEntity
  8
Widoczne (ISO)
100
AcDbLine
 10
2914.223339839233
 20
3051.085740973412
 30
0.0
 11
2779.853339839234
 21
3051.085740973412
 31
0.0
  0
ARC
  5
13A
330
6C
100
AcDbEntity
  8
Widoczne (ISO)
100
AcDbCircle
 10
2779.853339839235
 20
3046.405740973412
 30
0.0
 40
4.67999999999996
100
AcDbArc
 50
90.00000000001568
 51
180.0
  0
LINE
  5
13B
330
6C
100
AcDbEntity
  8
Widoczne (ISO)
100
AcDbLine
 10
2775.173339839215
 20
3046.405740973392
 30
0.0
 11
2775.173339839235
 21
3027.775740973412
 31
0.0
  0
ARC
  5
13C
330
6C
100
AcDbEntity
  8
Widoczne (ISO)
100
AcDbCircle
 10
2777.063339839235
 20
3027.775740973412
 30
0.0
 40
1.889999999999983
100
AcDbArc
 50
180.0
 51
0.0
  0
LINE
  5
13D
330
6C
100
AcDbEntity
  8
Widoczne (ISO)
100
AcDbLine
 10
2778.953339839235
 20
3027.775740973412
 30
0.0
 11
2778.953339839235
 21
3044.425740973412
 31
0.0
  0
ARC
  5
13E
330
6C
100
AcDbEntity
  8
Widoczne (ISO)
100
AcDbCircle
 10
2781.833339839235
 20
3044.425740973412
 30
0.0
 40
2.879999999999975
100
AcDbArc
 50
90.00000000001907
 51
180.0
  0
LINE
  5
13F
330
6C
100
AcDbEntity
  8
Widoczne (ISO)
100
AcDbLine
 10
2781.833339839235
 20
3047.305740973411
 30
0.0
 11
2811.353339839235
 21
3047.305740973412
 31
0.0
  0
LINE
  5
140
330
6C
100
AcDbEntity
  8
Widoczne (ISO)
100
AcDbLine
 10
2811.353339839235
 20
3047.305740973412
 30
0.0
 11
2811.353339839235
 21
3049.105740973412
 31
0.0
  0
ARC
  5
141
330
6C
100
AcDbEntity
  8
Widoczne (ISO)
100
AcDbCircle
 10
2986.493339839233
 20
3030.565740973413
 30
0.0
 40
4.679999999999975
100
AcDbArc
 50
269.9999999999922
 51
0.0
  0
LINE
  5
142
330
6C
100
AcDbEntity
  8
Widoczne (ISO)
100
AcDbLine
 10
2991.173339839233
 20
3030.565740973413
 30
0.0
 11
2991.173339839231
 21
3046.405740973411
 31
0.0
  0
ARC
  5
143
330
6C
100
AcDbEntity
  8
Widoczne (ISO)
100
AcDbCircle
 10
2986.493339839232
 20
3046.405740973412
 30
0.0
 40
4.679999999999955
100
AcDbArc
 50
0.0
 51
89.99999999998433
  0
LINE
  5
144
330
6C
100
AcDbEntity
  8
Widoczne (ISO)
100
AcDbLine
 10
2986.493339839234
 20
3051.085740973412
 30
0.0
 11
2952.923339839232
 21
3051.085740973412
 31
0.0
  0
LINE
  5
145
330
6C
100
AcDbEntity
  8
Widoczne (ISO)
100
AcDbLine
 10
2952.923339839232
 20
3051.085740973412
 30
0.0
 11
2952.923339839232
 21
3049.285740973412
 31
0.0
  0
LINE
  5
146
330
6C
100
AcDbEntity
  8
Widoczne (ISO)
100
AcDbLine
 10
2952.923339839232
 20
3049.285740973412
 30
0.0
 11
2986.493339839234
 21
3049.285740973412
 31
0.0
  0
ARC
  5
147
330
6C
100
AcDbEntity
  8
Widoczne (ISO)
100
AcDbCircle
 10
2986.493339839232
 20
3046.405740973412
 30
0.0
 40
2.879999999999991
100
AcDbArc
 50
0.0
 51
89.99999999997458
  0
LINE
  5
148
330
6C
100
AcDbEntity
  8
Widoczne (ISO)
100
AcDbLine
 10
2989.373339839231
 20
3046.405740973411
 30
0.0
 11
2989.373339839233
 21
3030.565740973413
 31
0.0
  0
ARC
  5
149
330
6C
100
AcDbEntity
  8
Widoczne (ISO)
100
AcDbCircle
 10
2986.493339839233
 20
3030.565740973413
 30
0.0
 40
2.879999999999977
100
AcDbArc
 50
269.9999999999873
 51
0.0
  0
LINE
  5
14A
330
6C
100
AcDbEntity
  8
Widoczne (ISO)
100
AcDbLine
 10
2986.493339839233
 20
3027.685740973412
 30
0.0
 11
2976.773339839233
 21
3027.685740973413
 31
0.0
  0
LINE
  5
14B
330
6C
100
AcDbEntity
  8
Widoczne (ISO)
100
AcDbLine
 10
2976.773339839233
 20
3027.685740973413
 30
0.0
 11
2976.773339839233
 21
3025.885740973413
 31
0.0
  0
LINE
  5
14C
330
6C
100
AcDbEntity
  8
Widoczne (ISO)
100
AcDbLine
 10
2976.773339839233
 20
3025.885740973413
 30
0.0
 11
2986.493339839233
 21
3025.885740973412
 31
0.0
  0
LINE
  5
14D
330
6C
100
AcDbEntity
  8
Widoczne (ISO)
100
AcDbLine
 10
2952.923339839232
 20
3049.285740973412
 30
0.0
 11
2952.387430303563
 21
3049.285740973412
 31
0.0
  0
LINE
  5
14E
330
6C
100
AcDbEntity
  8
Widoczne (ISO)
100
AcDbLine
 10
2935.373339839233
 20
3049.285740973412
 30
0.0
 11
2931.773339839232
 21
3049.285740973412
 31
0.0
  0
LINE
  5
14F
330
6C
100
AcDbEntity
  8
Widoczne (ISO)
100
AcDbLine
 10
2914.759249374903
 20
3049.285740973412
 30
0.0
 11
2914.223339839233
 21
3049.285740973412
 31
0.0
  0
LINE
  5
150
330
6C
100
AcDbEntity
  8
Widoczne (ISO)
100
AcDbLine
 10
2785.073339839234
 20
3032.905740973409
 30
0.0
 11
2785.073339839235
 21
3047.305740973409
 31
0.0
  0
LINE
  5
151
330
6C
100
AcDbEntity
  8
Widoczne (ISO)
100
AcDbLine
 10
2785.073339839235
 20
3047.305740973409
 30
0.0
 11
2782.373339839234
 21
3047.305740973409
 31
0.0
  0
LINE
  5
152
330
6C
100
AcDbEntity
  8
Widoczne (ISO)
100
AcDbLine
 10
2782.373339839234
 20
3047.305740973409
 30
0.0
 11
2782.373339839234
 21
3032.905740973409
 31
0.0
  0
ARC
  5
153
330
6C
100
AcDbEntity
  8
Widoczne (ISO)
100
AcDbCircle
 10
2787.773339839235
 20
3032.905740973409
 30
0.0
 40
5.399999999999971
100
AcDbArc
 50
180.0
 51
270.0
  0
LINE
  5
154
330
6C
100
AcDbEntity
  8
Widoczne (ISO)
100
AcDbLine
 10
2787.773339839235
 20
3027.505740973408
 30
0.0
 11
2923.673339839233
 21
3027.505740973408
 31
0.0
  0
LINE
  5
155
330
6C
100
AcDbEntity
  8
Widoczne (ISO)
100
AcDbLine
 10
2923.673339839233
 20
3027.505740973408
 30
0.0
 11
2923.673339839233
 21
3030.205740973409
 31
0.0
  0
LINE
  5
156
330
6C
100
AcDbEntity
  8
Widoczne (ISO)
100
AcDbLine
 10
2920.253339839232
 20
3030.205740973409
 30
0.0
 11
2787.773339839235
 21
3030.205740973409
 31
0.0
  0
ARC
  5
157
330
6C
100
AcDbEntity
  8
Widoczne (ISO)
100
AcDbCircle
 10
2787.773339839235
 20
3032.905740973409
 30
0.0
 40
2.699999999999963
100
AcDbArc
 50
180.0
 51
270.0
  0
LINE
  5
158
330
6C
100
AcDbEntity
  8
Widoczne (ISO)
100
AcDbLine
 10
2943.473339839233
 20
3030.205740973409
 30
0.0
 11
2943.473339839233
 21
3027.505740973408
 31
0.0
  0
LINE
  5
159
330
6C
100
AcDbEntity
  8
Widoczne (ISO)
100
AcDbLine
 10
2943.473339839233
 20
3027.505740973408
 30
0.0
 11
2985.773339839233
 21
3027.505740973408
 31
0.0
  0
LINE
  5
15A
330
6C
100
AcDbEntity
  8
Widoczne (ISO)
100
AcDbLine
 10
2985.773339839233
 20
3027.505740973408
 30
0.0
 11
2985.773339839233
 21
3030.205740973408
 31
0.0
  0
LINE
  5
15B
330
6C
100
AcDbEntity
  8
Widoczne (ISO)
100
AcDbLine
 10
2985.773339839233
 20
3030.205740973408
 30
0.0
 11
2946.880879957526
 21
3030.205740973409
 31
0.0
  0
LINE
  5
15C
330
6C
100
AcDbEntity
  8
Widoczne (ISO)
100
AcDbLine
 10
2943.473339839233
 20
3027.505740973408
 30
0.0
 11
2940.773339839232
 21
3027.505740973408
 31
0.0
  0
LINE
  5
15D
330
6C
100
AcDbEntity
  8
Widoczne (ISO)
100
AcDbLine
 10
2926.373339839232
 20
3027.505740973408
 30
0.0
 11
2923.673339839233
 21
3027.505740973408
 31
0.0
  0
LINE
  5
15E
330
6C
100
AcDbEntity
  8
Widoczne (ISO)
100
AcDbLine
 10
1037.273339839254
 20
3047.305740973412
 30
0.0
 11
1037.273339839254
 21
3032.905740973412
 31
0.0
  0
ARC
  5
15F
330
6C
100
AcDbEntity
  8
Widoczne (ISO)
100
AcDbCircle
 10
1034.573339839254
 20
3032.905740973412
 30
0.0
 40
2.699999999999951
100
AcDbArc
 50
270.0
 51
0.0
  0
LINE
  5
160
330
6C
100
AcDbEntity
  8
Widoczne (ISO)
100
AcDbLine
 10
1034.573339839254
 20
3030.205740973413
 30
0.0
 11
902.0808799575499
 21
3030.205740973413
 31
0.0
  0
LINE
  5
161
330
6C
100
AcDbEntity
  8
Widoczne (ISO)
100
AcDbLine
 10
898.6733398392559
 20
3030.205740973413
 30
0.0
 11
898.6733398392557
 21
3027.505740973412
 31
0.0
  0
LINE
  5
162
330
6C
100
AcDbEntity
  8
Widoczne (ISO)
100
AcDbLine
 10
898.6733398392559
 20
3027.505740973412
 30
0.0
 11
1034.573339839254
 21
3027.505740973412
 31
0.0
  0
ARC
  5
163
330
6C
100
AcDbEntity
  8
Widoczne (ISO)
100
AcDbCircle
 10
1034.573339839254
 20
3032.905740973412
 30
0.0
 40
5.399999999999963
100
AcDbArc
 50
270.0
 51
0.0
  0
LINE
  5
164
330
6C
100
AcDbEntity
  8
Widoczne (ISO)
100
AcDbLine
 10
1039.973339839254
 20
3032.905740973412
 30
0.0
 11
1039.973339839254
 21
3047.305740973412
 31
0.0
  0
LINE
  5
165
330
6C
100
AcDbEntity
  8
Widoczne (ISO)
100
AcDbLine
 10
1039.973339839254
 20
3047.305740973412
 30
0.0
 11
1037.273339839254
 21
3047.305740973412
 31
0.0
  0
LINE
  5
166
330
6C
100
AcDbEntity
  8
Widoczne (ISO)
100
AcDbLine
 10
878.873339839256
 20
3027.505740973412
 30
0.0
 11
878.873339839256
 21
3030.205740973413
 31
0.0
  0
LINE
  5
167
330
6C
100
AcDbEntity
  8
Widoczne (ISO)
100
AcDbLine
 10
875.4533398392561
 20
3030.205740973413
 30
0.0
 11
836.5733398392562
 21
3030.205740973412
 31
0.0
  0
LINE
  5
168
330
6C
100
AcDbEntity
  8
Widoczne (ISO)
100
AcDbLine
 10
836.5733398392562
 20
3030.205740973412
 30
0.0
 11
836.5733398392562
 21
3027.505740973412
 31
0.0
  0
LINE
  5
169
330
6C
100
AcDbEntity
  8
Widoczne (ISO)
100
AcDbLine
 10
836.5733398392562
 20
3027.505740973412
 30
0.0
 11
878.873339839256
 21
3027.505740973412
 31
0.0
  0
LINE
  5
16A
330
6C
100
AcDbEntity
  8
Widoczne (ISO)
100
AcDbLine
 10
898.6733398392559
 20
3027.505740973412
 30
0.0
 11
895.9733398392559
 21
3027.505740973412
 31
0.0
  0
LINE
  5
16B
330
6C
100
AcDbEntity
  8
Widoczne (ISO)
100
AcDbLine
 10
881.5733398392563
 20
3027.505740973412
 30
0.0
 11
878.8733398392558
 21
3027.505740973412
 31
0.0
  0
LINE
  5
16C
330
6C
100
AcDbEntity
  8
Widoczne (ISO)
100
AcDbLine
 10
866.2733398392555
 20
3051.085740973413
 30
0.0
 11
911.2733398392551
 21
3051.085740973413
 31
0.0
  0
ARC
  5
16D
330
6C
100
AcDbEntity
  8
Widoczne (ISO)
100
AcDbCircle
 10
907.6733398392553
 20
3051.085740973412
 30
0.0
 40
3.599999999999976
100
AcDbArc
 50
0.0
 51
89.99999999999745
  0
LINE
  5
16E
330
6C
100
AcDbEntity
  8
Widoczne (ISO)
100
AcDbLine
 10
907.6733398392553
 20
3054.685740973412
 30
0.0
 11
869.8733398392555
 21
3054.685740973412
 31
0.0
  0
ARC
  5
16F
330
6C
100
AcDbEntity
  8
Widoczne (ISO)
100
AcDbCircle
 10
869.8733398392556
 20
3051.085740973412
 30
0.0
 40
3.599999999999976
100
AcDbArc
 50
90.0
 51
180.0
  0
LINE
  5
170
330
6C
100
AcDbEntity
  8
Widoczne (ISO)
100
AcDbLine
 10
872.6736504012571
 20
3051.085740973412
 30
0.0
 11
872.6736504012571
 21
3037.585740973413
 31
0.0
  0
LINE
  5
171
330
6C
100
AcDbEntity
  8
Widoczne (ISO)
100
AcDbLine
 10
869.9592493749253
 20
3049.285740973413
 30
0.0
 11
869.9592493749253
 21
3051.085740973412
 31
0.0
  0
SPLINE
  5
172
330
6C
100
AcDbEntity
  8
Widoczne (ISO)
100
AcDbSpline
210
0.0
220
0.0
230
1.0
 70
    12
 71
     2
 72
     6
 73
     3
 74
     0
 42
0.0000000001
 43
0.0000000001
 40
0.0
 40
0.0
 40
0.0
 40
0.4124118197930455
 40
0.4124118197930455
 40
0.4124118197930455
 10
868.1517492119542
 20
3042.085740973412
 30
0.0
 41
1.0
 10
869.0965788436221
 20
3045.850743848155
 30
0.0
 41
1.001043315299846
 10
869.9592493749253
 20
3049.285740973413
 30
0.0
 41
1.0
  0
SPLINE
  5
173
330
6C
100
AcDbEntity
  8
Widoczne (ISO)
100
AcDbSpline
210
0.0
220
0.0
230
1.0
 70
    12
 71
     2
 72
     6
 73
     3
 74
     0
 42
0.0000000001
 43
0.0000000001
 40
0.0
 40
0.0
 40
0.0
 40
0.2918858998468154
 40
0.2918858998468154
 40
0.2918858998468154
 10
870.8635659713364
 20
3037.585740973413
 30
0.0
 41
1.0
 10
869.602255851089
 20
3039.677387179982
 30
0.0
 41
1.002464176030559
 10
868.1517492119542
 20
3042.085740973412
 30
0.0
 41
1.0
  0
LINE
  5
174
330
6C
100
AcDbEntity
  8
Widoczne (ISO)
100
AcDbLine
 10
872.6736504012571
 20
3037.585740973413
 30
0.0
 11
870.8635659713364
 21
3037.585740973413
 31
0.0
  0
LINE
  5
175
330
6C
100
AcDbEntity
  8
Widoczne (ISO)
100
AcDbLine
 10
907.5874303035854
 20
3051.085740973412
 30
0.0
 11
907.5874303035854
 21
3049.285740973413
 31
0.0
  0
LINE
  5
176
330
6C
100
AcDbEntity
  8
Widoczne (ISO)
100
AcDbLine
 10
904.8730292772537
 20
3037.585740973413
 30
0.0
 11
904.8730292772537
 21
3051.085740973412
 31
0.0
  0
LINE
  5
177
330
6C
100
AcDbEntity
  8
Widoczne (ISO)
100
AcDbLine
 10
906.6831137071742
 20
3037.585740973413
 30
0.0
 11
904.8730292772537
 21
3037.585740973413
 31
0.0
  0
SPLINE
  5
178
330
6C
100
AcDbEntity
  8
Widoczne (ISO)
100
AcDbSpline
210
0.0
220
0.0
230
1.0
 70
    12
 71
     2
 72
     6
 73
     3
 74
     0
 42
0.0000000001
 43
0.0000000001
 40
0.0
 40
0.0
 40
0.0
 40
0.2918858998468154
 40
0.2918858998468154
 40
0.2918858998468154
 10
909.3949304665565
 20
3042.085740973412
 30
0.0
 41
1.0
 10
907.9444238274216
 20
3039.677387179982
 30
0.0
 41
1.002464176030559
 10
906.6831137071742
 20
3037.585740973413
 30
0.0
 41
1.0
  0
SPLINE
  5
179
330
6C
100
AcDbEntity
  8
Widoczne (ISO)
100
AcDbSpline
210
0.0
220
0.0
230
1.0
 70
    12
 71
     2
 72
     6
 73
     3
 74
     0
 42
0.0000000001
 43
0.0000000001
 40
0.0
 40
0.0
 40
0.0
 40
0.4124118197930455
 40
0.4124118197930455
 40
0.4124118197930455
 10
907.5874303035854
 20
3049.285740973413
 30
0.0
 41
1.0
 10
908.4501008348887
 20
3045.850743848155
 30
0.0
 41
1.001043315299846
 10
909.3949304665565
 20
3042.085740973412
 30
0.0
 41
1.0
  0
LINE
  5
17A
330
6C
100
AcDbEntity
  8
Widoczne (ISO)
100
AcDbLine
 10
900.4733398392556
 20
3037.585740973413
 30
0.0
 11
904.8730292772535
 21
3037.585740973413
 31
0.0
  0
LINE
  5
17B
330
6C
100
AcDbEntity
  8
Widoczne (ISO)
100
AcDbLine
 10
872.6736504012569
 20
3037.585740973413
 30
0.0
 11
877.0733398392556
 21
3037.585740973413
 31
0.0
  0
LINE
  5
17C
330
6C
100
AcDbEntity
  8
Widoczne (ISO)
100
AcDbLine
 10
890.5733398392554
 20
3051.085740973412
 30
0.0
 11
890.5733398392554
 21
3048.385740973413
 31
0.0
  0
LINE
  5
17D
330
6C
100
AcDbEntity
  8
Widoczne (ISO)
100
AcDbLine
 10
886.9733398392552
 20
3048.385740973413
 30
0.0
 11
886.9733398392552
 21
3051.085740973412
 31
0.0
  0
LINE
  5
17E
330
6C
100
AcDbEntity
  8
Widoczne (ISO)
100
AcDbLine
 10
2911.073339839233
 20
3051.085740973412
 30
0.0
 11
2956.073339839232
 21
3051.085740973412
 31
0.0
  0
ARC
  5
17F
330
6C
100
AcDbEntity
  8
Widoczne (ISO)
100
AcDbCircle
 10
2952.473339839233
 20
3051.085740973412
 30
0.0
 40
3.599999999999976
100
AcDbArc
 50
0.0
 51
89.99999999998982
  0
LINE
  5
180
330
6C
100
AcDbEntity
  8
Widoczne (ISO)
100
AcDbLine
 10
2952.473339839233
 20
3054.685740973412
 30
0.0
 11
2914.673339839233
 21
3054.685740973412
 31
0.0
  0
ARC
  5
181
330
6C
100
AcDbEntity
  8
Widoczne (ISO)
100
AcDbCircle
 10
2914.673339839233
 20
3051.085740973412
 30
0.0
 40
3.599999999999976
100
AcDbArc
 50
90.0
 51
180.0
  0
LINE
  5
182
330
6C
100
AcDbEntity
  8
Widoczne (ISO)
100
AcDbLine
 10
2917.473650401234
 20
3051.085740973412
 30
0.0
 11
2917.473650401234
 21
3037.585740973412
 31
0.0
  0
LINE
  5
183
330
6C
100
AcDbEntity
  8
Widoczne (ISO)
100
AcDbLine
 10
2914.759249374903
 20
3049.285740973412
 30
0.0
 11
2914.759249374903
 21
3051.085740973412
 31
0.0
  0
SPLINE
  5
184
330
6C
100
AcDbEntity
  8
Widoczne (ISO)
100
AcDbSpline
210
0.0
220
0.0
230
1.0
 70
    12
 71
     2
 72
     6
 73
     3
 74
     0
 42
0.0000000001
 43
0.0000000001
 40
0.0
 40
0.0
 40
0.0
 40
0.4124118197930455
 40
0.4124118197930455
 40
0.4124118197930455
 10
2912.951749211932
 20
3042.085740973412
 30
0.0
 41
1.0
 10
2913.8965788436
 20
3045.850743848154
 30
0.0
 41
1.001043315299846
 10
2914.759249374903
 20
3049.285740973412
 30
0.0
 41
1.0
  0
SPLINE
  5
185
330
6C
100
AcDbEntity
  8
Widoczne (ISO)
100
AcDbSpline
210
0.0
220
0.0
230
1.0
 70
    12
 71
     2
 72
     6
 73
     3
 74
     0
 42
0.0000000001
 43
0.0000000001
 40
0.0
 40
0.0
 40
0.0
 40
0.2918858998468154
 40
0.2918858998468154
 40
0.2918858998468154
 10
2915.663565971314
 20
3037.585740973412
 30
0.0
 41
1.0
 10
2914.402255851067
 20
3039.677387179981
 30
0.0
 41
1.002464176030559
 10
2912.951749211932
 20
3042.085740973412
 30
0.0
 41
1.0
  0
LINE
  5
186
330
6C
100
AcDbEntity
  8
Widoczne (ISO)
100
AcDbLine
 10
2917.473650401234
 20
3037.585740973412
 30
0.0
 11
2915.663565971314
 21
3037.585740973412
 31
0.0
  0
LINE
  5
187
330
6C
100
AcDbEntity
  8
Widoczne (ISO)
100
AcDbLine
 10
2952.387430303563
 20
3051.085740973412
 30
0.0
 11
2952.387430303563
 21
3049.285740973412
 31
0.0
  0
LINE
  5
188
330
6C
100
AcDbEntity
  8
Widoczne (ISO)
100
AcDbLine
 10
2949.673029277231
 20
3037.585740973412
 30
0.0
 11
2949.673029277231
 21
3051.085740973412
 31
0.0
  0
LINE
  5
189
330
6C
100
AcDbEntity
  8
Widoczne (ISO)
100
AcDbLine
 10
2951.483113707152
 20
3037.585740973412
 30
0.0
 11
2949.673029277231
 21
3037.585740973412
 31
0.0
  0
SPLINE
  5
18A
330
6C
100
AcDbEntity
  8
Widoczne (ISO)
100
AcDbSpline
210
0.0
220
0.0
230
1.0
 70
    12
 71
     2
 72
     6
 73
     3
 74
     0
 42
0.0000000001
 43
0.0000000001
 40
0.0
 40
0.0
 40
0.0
 40
0.2918858998468154
 40
0.2918858998468154
 40
0.2918858998468154
 10
2954.194930466534
 20
3042.085740973412
 30
0.0
 41
1.0
 10
2952.7444238274
 20
3039.677387179981
 30
0.0
 41
1.002464176030559
 10
2951.483113707152
 20
3037.585740973412
 30
0.0
 41
1.0
  0
SPLINE
  5
18B
330
6C
100
AcDbEntity
  8
Widoczne (ISO)
100
AcDbSpline
210
0.0
220
0.0
230
1.0
 70
    12
 71
     2
 72
     6
 73
     3
 74
     0
 42
0.0000000001
 43
0.0000000001
 40
0.0
 40
0.0
 40
0.0
 40
0.4124118197930455
 40
0.4124118197930455
 40
0.4124118197930455
 10
2952.387430303563
 20
3049.285740973412
 30
0.0
 41
1.0
 10
2953.250100834866
 20
3045.850743848154
 30
0.0
 41
1.001043315299846
 10
2954.194930466534
 20
3042.085740973412
 30
0.0
 41
1.0
  0
LINE
  5
18C
330
6C
100
AcDbEntity
  8
Widoczne (ISO)
100
AcDbLine
 10
2945.273339839233
 20
3037.585740973412
 30
0.0
 11
2949.673029277232
 21
3037.585740973412
 31
0.0
  0
LINE
  5
18D
330
6C
100
AcDbEntity
  8
Widoczne (ISO)
100
AcDbLine
 10
2917.473650401234
 20
3037.585740973412
 30
0.0
 11
2921.873339839233
 21
3037.585740973412
 31
0.0
  0
LINE
  5
18E
330
6C
100
AcDbEntity
  8
Widoczne (ISO)
100
AcDbLine
 10
2935.373339839233
 20
3051.085740973412
 30
0.0
 11
2935.373339839233
 21
3048.385740973409
 31
0.0
  0
LINE
  5
18F
330
6C
100
AcDbEntity
  8
Widoczne (ISO)
100
AcDbLine
 10
2931.773339839233
 20
3048.385740973408
 30
0.0
 11
2931.773339839233
 21
3051.085740973412
 31
0.0
  0
LINE
  5
190
330
6C
100
AcDbEntity
  8
Widoczne (ISO)
100
AcDbLine
 10
2778.773339839273
 20
2843.185740973412
 30
0.0
 11
2778.773339839273
 21
2845.885740973412
 31
0.0
  0
LINE
  5
191
330
6C
100
AcDbEntity
  8
Widoczne (ISO)
100
AcDbLine
 10
2778.773339839273
 20
2845.885740973412
 30
0.0
 11
2764.193339839273
 21
2845.885740973412
 31
0.0
  0
ARC
  5
192
330
6C
100
AcDbEntity
  8
Widoczne (ISO)
100
AcDbCircle
 10
2764.193339839273
 20
2838.865740973412
 30
0.0
 40
7.020000000000011
100
AcDbArc
 50
90.0
 51
180.0
  0
LINE
  5
193
330
6C
100
AcDbEntity
  8
Widoczne (ISO)
100
AcDbLine
 10
2757.173339839273
 20
2838.865740973412
 30
0.0
 11
2757.173339839273
 21
2780.905740973413
 31
0.0
  0
ARC
  5
194
330
6C
100
AcDbEntity
  8
Widoczne (ISO)
100
AcDbCircle
 10
2764.193339839273
 20
2780.905740973413
 30
0.0
 40
7.020000000000001
100
AcDbArc
 50
180.0
 51
270.0
  0
LINE
  5
195
330
6C
100
AcDbEntity
  8
Widoczne (ISO)
100
AcDbLine
 10
2764.193339839273
 20
2773.885740973412
 30
0.0
 11
2914.223339839272
 21
2773.885740973412
 31
0.0
  0
LINE
  5
196
330
6C
100
AcDbEntity
  8
Widoczne (ISO)
100
AcDbLine
 10
2914.223339839272
 20
2773.885740973412
 30
0.0
 11
2914.223339839272
 21
2776.585740973413
 31
0.0
  0
LINE
  5
197
330
6C
100
AcDbEntity
  8
Widoczne (ISO)
100
AcDbLine
 10
2914.223339839272
 20
2776.585740973413
 30
0.0
 11
2764.193339839273
 21
2776.585740973413
 31
0.0
  0
ARC
  5
198
330
6C
100
AcDbEntity
  8
Widoczne (ISO)
100
AcDbCircle
 10
2764.193339839273
 20
2780.905740973413
 30
0.0
 40
4.320000000000002
100
AcDbArc
 50
180.0
 51
270.0
  0
LINE
  5
199
330
6C
100
AcDbEntity
  8
Widoczne (ISO)
100
AcDbLine
 10
2759.873339839273
 20
2780.905740973413
 30
0.0
 11
2759.873339839273
 21
2838.865740973412
 31
0.0
  0
ARC
  5
19A
330
6C
100
AcDbEntity
  8
Widoczne (ISO)
100
AcDbCircle
 10
2764.193339839273
 20
2838.865740973412
 30
0.0
 40
4.319999999999998
100
AcDbArc
 50
90.0
 51
180.0
  0
LINE
  5
19B
330
6C
100
AcDbEntity
  8
Widoczne (ISO)
100
AcDbLine
 10
2764.193339839273
 20
2843.185740973412
 30
0.0
 11
2778.773339839273
 21
2843.185740973412
 31
0.0
  0
ARC
  5
19C
330
6C
100
AcDbEntity
  8
Widoczne (ISO)
100
AcDbCircle
 10
2984.153339839273
 20
2780.905740973413
 30
0.0
 40
7.020000000000002
100
AcDbArc
 50
270.0
 51
0.0
  0
LINE
  5
19D
330
6C
100
AcDbEntity
  8
Widoczne (ISO)
100
AcDbLine
 10
2991.173339839273
 20
2780.905740973413
 30
0.0
 11
2991.173339839273
 21
2838.865740973412
 31
0.0
  0
ARC
  5
19E
330
6C
100
AcDbEntity
  8
Widoczne (ISO)
100
AcDbCircle
 10
2984.153339839273
 20
2838.865740973412
 30
0.0
 40
7.019999999999977
100
AcDbArc
 50
0.0
 51
90.0
  0
LINE
  5
19F
330
6C
100
AcDbEntity
  8
Widoczne (ISO)
100
AcDbLine
 10
2984.153339839273
 20
2845.885740973412
 30
0.0
 11
2969.573339839273
 21
2845.885740973412
 31
0.0
  0
LINE
  5
1A0
330
6C
100
AcDbEntity
  8
Widoczne (ISO)
100
AcDbLine
 10
2969.573339839273
 20
2845.885740973412
 30
0.0
 11
2969.573339839273
 21
2843.185740973412
 31
0.0
  0
LINE
  5
1A1
330
6C
100
AcDbEntity
  8
Widoczne (ISO)
100
AcDbLine
 10
2969.573339839273
 20
2843.185740973412
 30
0.0
 11
2984.153339839273
 21
2843.185740973412
 31
0.0
  0
ARC
  5
1A2
330
6C
100
AcDbEntity
  8
Widoczne (ISO)
100
AcDbCircle
 10
2984.153339839273
 20
2838.865740973412
 30
0.0
 40
4.319999999999996
100
AcDbArc
 50
0.0
 51
90.0
  0
LINE
  5
1A3
330
6C
100
AcDbEntity
  8
Widoczne (ISO)
100
AcDbLine
 10
2988.473339839273
 20
2838.865740973412
 30
0.0
 11
2988.473339839273
 21
2780.905740973413
 31
0.0
  0
ARC
  5
1A4
330
6C
100
AcDbEntity
  8
Widoczne (ISO)
100
AcDbCircle
 10
2984.153339839273
 20
2780.905740973413
 30
0.0
 40
4.319999999999971
100
AcDbArc
 50
270.0
 51
0.0
  0
LINE
  5
1A5
330
6C
100
AcDbEntity
  8
Widoczne (ISO)
100
AcDbLine
 10
2984.153339839273
 20
2776.585740973413
 30
0.0
 11
2952.923339839273
 21
2776.585740973413
 31
0.0
  0
LINE
  5
1A6
330
6C
100
AcDbEntity
  8
Widoczne (ISO)
100
AcDbLine
 10
2952.923339839273
 20
2776.585740973413
 30
0.0
 11
2952.923339839273
 21
2773.885740973412
 31
0.0
  0
LINE
  5
1A7
330
6C
100
AcDbEntity
  8
Widoczne (ISO)
100
AcDbLine
 10
2952.923339839273
 20
2773.885740973412
 30
0.0
 11
2984.153339839273
 21
2773.885740973412
 31
0.0
  0
LINE
  5
1A8
330
6C
100
AcDbEntity
  8
Widoczne (ISO)
100
AcDbLine
 10
2914.223339839272
 20
2776.585740973413
 30
0.0
 11
2914.533234141037
 21
2776.585740973413
 31
0.0
  0
LINE
  5
1A9
330
6C
100
AcDbEntity
  8
Widoczne (ISO)
100
AcDbLine
 10
2931.773339839273
 20
2776.585740973413
 30
0.0
 11
2935.373339839273
 21
2776.585740973413
 31
0.0
  0
LINE
  5
1AA
330
6C
100
AcDbEntity
  8
Widoczne (ISO)
100
AcDbLine
 10
2952.613445537508
 20
2776.585740973413
 30
0.0
 11
2952.923339839273
 21
2776.585740973413
 31
0.0
  0
LINE
  5
1AB
330
6C
100
AcDbEntity
  8
Widoczne (ISO)
100
AcDbLine
 10
841.9733398392637
 20
2840.485740973413
 30
0.0
 11
881.5733398392561
 21
2840.485740973413
 31
0.0
  0
LINE
  5
1AC
330
6C
100
AcDbEntity
  8
Widoczne (ISO)
100
AcDbLine
 10
895.9733398392561
 20
2840.485740973413
 30
0.0
 11
1011.173339839263
 21
2840.485740973413
 31
0.0
  0
LINE
  5
1AD
330
6C
100
AcDbEntity
  8
Widoczne (ISO)
100
AcDbLine
 10
852.7733398392637
 20
2843.185740973412
 30
0.0
 11
881.5733398392561
 21
2843.185740973412
 31
0.0
  0
LINE
  5
1AE
330
6C
100
AcDbEntity
  8
Widoczne (ISO)
100
AcDbLine
 10
895.9733398392561
 20
2843.185740973412
 30
0.0
 11
1011.173339839263
 21
2843.185740973412
 31
0.0
  0
LINE
  5
1AF
330
6C
100
AcDbEntity
  8
Widoczne (ISO)
100
AcDbLine
 10
841.9733398392637
 20
2843.185740973412
 30
0.0
 11
841.9733398392637
 21
2840.485740973413
 31
0.0
  0
ARC
  5
1B0
330
6C
100
AcDbEntity
  8
Widoczne (ISO)
100
AcDbCircle
 10
2789.393339839273
 20
2836.165740973415
 30
0.0
 40
7.020000000000029
100
AcDbArc
 50
90.0
 51
180.0
  0
ARC
  5
1B1
330
6C
100
AcDbEntity
  8
Widoczne (ISO)
100
AcDbCircle
 10
2789.393339839273
 20
2836.165740973415
 30
0.0
 40
4.319999999999987
100
AcDbArc
 50
90.0
 51
180.0
  0
LINE
  5
1B2
330
6C
100
AcDbEntity
  8
Widoczne (ISO)
100
AcDbLine
 10
2785.073339839272
 20
2815.285740973415
 30
0.0
 11
2785.073339839273
 21
2836.165740973415
 31
0.0
  0
LINE
  5
1B3
330
6C
100
AcDbEntity
  8
Widoczne (ISO)
100
AcDbLine
 10
2789.393339839273
 20
2840.485740973415
 30
0.0
 11
2926.373339839232
 21
2840.485740973415
 31
0.0
  0
LINE
  5
1B4
330
6C
100
AcDbEntity
  8
Widoczne (ISO)
100
AcDbLine
 10
2940.773339839232
 20
2840.485740973415
 30
0.0
 11
2980.373339839273
 21
2840.485740973415
 31
0.0
  0
LINE
  5
1B5
330
6C
100
AcDbEntity
  8
Widoczne (ISO)
100
AcDbLine
 10
2782.373339839272
 20
2836.165740973415
 30
0.0
 11
2782.373339839273
 21
2815.285740973415
 31
0.0
  0
LINE
  5
1B6
330
6C
100
AcDbEntity
  8
Widoczne (ISO)
100
AcDbLine
 10
2782.373339839273
 20
2815.285740973415
 30
0.0
 11
2785.073339839272
 21
2815.285740973415
 31
0.0
  0
LINE
  5
1B7
330
6C
100
AcDbEntity
  8
Widoczne (ISO)
100
AcDbLine
 10
2980.373339839273
 20
2843.185740973415
 30
0.0
 11
2980.373339839273
 21
2840.485740973415
 31
0.0
  0
LINE
  5
1B8
330
6C
100
AcDbEntity
  8
Widoczne (ISO)
100
AcDbLine
 10
2969.573339839273
 20
2843.185740973415
 30
0.0
 11
2940.773339839232
 21
2843.185740973415
 31
0.0
  0
LINE
  5
1B9
330
6C
100
AcDbEntity
  8
Widoczne (ISO)
100
AcDbLine
 10
2926.373339839232
 20
2843.185740973415
 30
0.0
 11
2789.393339839273
 21
2843.185740973415
 31
0.0
  0
LINE
  5
1BA
330
6C
100
AcDbEntity
  8
Widoczne (ISO)
100
AcDbLine
 10
1046.273339839263
 20
2819.605740973413
 30
0.0
 11
1046.273339839263
 21
2843.185740973412
 31
0.0
  0
LINE
  5
1BB
330
6C
100
AcDbEntity
  8
Widoczne (ISO)
100
AcDbLine
 10
1010.273339839264
 20
2812.585740973413
 30
0.0
 11
1011.173339839264
 21
2812.585740973413
 31
0.0
  0
LINE
  5
1BC
330
6C
100
AcDbEntity
  8
Widoczne (ISO)
100
AcDbLine
 10
1010.273339839264
 20
2815.285740973413
 30
0.0
 11
1011.173339839264
 21
2815.285740973413
 31
0.0
  0
LINE
  5
1BD
330
6C
100
AcDbEntity
  8
Widoczne (ISO)
100
AcDbLine
 10
1010.273339839264
 20
2815.285740973413
 30
0.0
 11
1010.273339839264
 21
2812.585740973413
 31
0.0
  0
ARC
  5
1BE
330
6C
100
AcDbEntity
  8
Widoczne (ISO)
100
AcDbCircle
 10
1039.253339839264
 20
2819.605740973413
 30
0.0
 40
4.319999999999995
100
AcDbArc
 50
305.6853347126558
 51
350.4059317731365
  0
ARC
  5
1BF
330
6C
100
AcDbEntity
  8
Widoczne (ISO)
100
AcDbCircle
 10
1039.253339839264
 20
2819.605740973413
 30
0.0
 40
7.019999999999992
100
AcDbArc
 50
291.0372212560389
 51
0.0
  0
ARC
  5
1C0
330
6C
100
AcDbEntity
  8
Widoczne (ISO)
100
AcDbCircle
 10
2783.093339839272
 20
2819.605740973415
 30
0.0
 40
4.320000000000019
100
AcDbArc
 50
189.5940682268634
 51
270.0
  0
ARC
  5
1C1
330
6C
100
AcDbEntity
  8
Widoczne (ISO)
100
AcDbCircle
 10
2783.093339839272
 20
2819.605740973415
 30
0.0
 40
7.020000000000027
100
AcDbArc
 50
180.0
 51
270.0
  0
LINE
  5
1C2
330
6C
100
AcDbEntity
  8
Widoczne (ISO)
100
AcDbLine
 10
2776.073339839272
 20
2843.185740973415
 30
0.0
 11
2776.073339839272
 21
2819.605740973415
 31
0.0
  0
LINE
  5
1C3
330
6C
100
AcDbEntity
  8
Widoczne (ISO)
100
AcDbLine
 10
2783.093339839272
 20
2812.585740973415
 30
0.0
 11
2812.073339839272
 21
2812.585740973415
 31
0.0
  0
LINE
  5
1C4
330
6C
100
AcDbEntity
  8
Widoczne (ISO)
100
AcDbLine
 10
2812.073339839272
 20
2815.285740973415
 30
0.0
 11
2812.073339839272
 21
2812.585740973415
 31
0.0
  0
LINE
  5
1C5
330
6C
100
AcDbEntity
  8
Widoczne (ISO)
100
AcDbLine
 10
2812.073339839272
 20
2815.285740973415
 30
0.0
 11
2783.093339839272
 21
2815.285740973415
 31
0.0
  0
LINE
  5
1C6
330
6C
100
AcDbEntity
  8
Widoczne (ISO)
100
AcDbLine
 10
867.1733398392637
 20
2771.504564793455
 30
0.0
 11
867.1733398392637
 21
2763.085740973413
 31
0.0
  0
LINE
  5
1C7
330
6C
100
AcDbEntity
  8
Widoczne (ISO)
100
AcDbLine
 10
867.1733398392637
 20
2763.085740973413
 30
0.0
 11
957.1733398392636
 21
2763.085740973413
 31
0.0
  0
LINE
  5
1C8
330
6C
100
AcDbEntity
  8
Widoczne (ISO)
100
AcDbLine
 10
957.1733398392636
 20
2773.885740973412
 30
0.0
 11
957.1733398392636
 21
2763.085740973413
 31
0.0
  0
LINE
  5
1C9
330
6C
100
AcDbEntity
  8
Widoczne (ISO)
100
AcDbLine
 10
904.9733398392636
 20
2757.99457214887
 30
0.0
 11
904.9733398392636
 21
2709.085740973413
 31
0.0
  0
LINE
  5
1CA
330
6C
100
AcDbEntity
  8
Widoczne (ISO)
100
AcDbLine
 10
919.3733398392636
 20
2709.085740973413
 30
0.0
 11
904.9733398392636
 21
2709.085740973413
 31
0.0
  0
LINE
  5
1CB
330
6C
100
AcDbEntity
  8
Widoczne (ISO)
100
AcDbLine
 10
919.3733398392636
 20
2757.99457214887
 30
0.0
 11
919.3733398392636
 21
2709.085740973413
 31
0.0
  0
LINE
  5
1CC
330
6C
100
AcDbEntity
  8
Widoczne (ISO)
100
AcDbLine
 10
2956.073339839273
 20
2773.885740973412
 30
0.0
 11
2911.073339839273
 21
2773.885740973412
 31
0.0
  0
ARC
  5
1CD
330
6C
100
AcDbEntity
  8
Widoczne (ISO)
100
AcDbCircle
 10
2914.673339839274
 20
2773.885740973412
 30
0.0
 40
3.600000000000003
100
AcDbArc
 50
180.0
 51
270.0
  0
LINE
  5
1CE
330
6C
100
AcDbEntity
  8
Widoczne (ISO)
100
AcDbLine
 10
2914.673339839274
 20
2770.285740973413
 30
0.0
 11
2952.473339839272
 21
2770.285740973413
 31
0.0
  0
ARC
  5
1CF
330
6C
100
AcDbEntity
  8
Widoczne (ISO)
100
AcDbCircle
 10
2952.473339839272
 20
2773.885740973412
 30
0.0
 40
3.599999999999987
100
AcDbArc
 50
270.0
 51
0.0
  0
LINE
  5
1D0
330
6C
100
AcDbEntity
  8
Widoczne (ISO)
100
AcDbLine
 10
2935.373339839273
 20
2787.385740973413
 30
0.0
 11
2935.373339839273
 21
2773.885740973412
 31
0.0
  0
LINE
  5
1D1
330
6C
100
AcDbEntity
  8
Widoczne (ISO)
100
AcDbLine
 10
2931.773339839273
 20
2773.885740973412
 30
0.0
 11
2931.773339839273
 21
2787.385740973413
 31
0.0
  0
LINE
  5
1D2
330
6C
100
AcDbEntity
  8
Widoczne (ISO)
100
AcDbLine
 10
2952.387430303603
 20
2775.685740973413
 30
0.0
 11
2952.387430303603
 21
2773.885740973412
 31
0.0
  0
SPLINE
  5
1D3
330
6C
100
AcDbEntity
  8
Widoczne (ISO)
100
AcDbSpline
210
0.0
220
0.0
230
1.0
 70
    12
 71
     2
 72
     6
 73
     3
 74
     0
 42
0.0000000001
 43
0.0000000001
 40
0.0
 40
0.0
 40
0.0
 40
0.4124118197930398
 40
0.4124118197930398
 40
0.4124118197930398
 10
2954.194930466574
 20
2782.885740973413
 30
0.0
 41
1.0
 10
2953.250100835548
 20
2779.120738101227
 30
0.0
 41
1.001043315288898
 10
2952.387430303603
 20
2775.685740973413
 30
0.0
 41
1.0
  0
SPLINE
  5
1D4
330
6C
100
AcDbEntity
  8
Widoczne (ISO)
100
AcDbSpline
210
0.0
220
0.0
230
1.0
 70
    12
 71
     2
 72
     6
 73
     3
 74
     0
 42
0.0000000001
 43
0.0000000001
 40
0.0
 40
0.0
 40
0.0
 40
0.2918858998468096
 40
0.2918858998468096
 40
0.2918858998468096
 10
2951.483113707192
 20
2787.385740973413
 30
0.0
 41
1.0
 10
2952.744423828468
 20
2785.294094765138
 30
0.0
 41
1.002464175917054
 10
2954.194930466574
 20
2782.885740973413
 30
0.0
 41
1.0
  0
LINE
  5
1D5
330
6C
100
AcDbEntity
  8
Widoczne (ISO)
100
AcDbLine
 10
2949.673029277271
 20
2787.385740973413
 30
0.0
 11
2951.483113707192
 21
2787.385740973413
 31
0.0
  0
LINE
  5
1D6
330
6C
100
AcDbEntity
  8
Widoczne (ISO)
100
AcDbLine
 10
2949.673029277271
 20
2773.885740973412
 30
0.0
 11
2949.673029277271
 21
2787.385740973413
 31
0.0
  0
LINE
  5
1D7
330
6C
100
AcDbEntity
  8
Widoczne (ISO)
100
AcDbLine
 10
2914.759249374943
 20
2773.885740973412
 30
0.0
 11
2914.759249374943
 21
2775.685740973413
 31
0.0
  0
LINE
  5
1D8
330
6C
100
AcDbEntity
  8
Widoczne (ISO)
100
AcDbLine
 10
2917.473650401275
 20
2787.385740973413
 30
0.0
 11
2917.473650401275
 21
2773.885740973412
 31
0.0
  0
LINE
  5
1D9
330
6C
100
AcDbEntity
  8
Widoczne (ISO)
100
AcDbLine
 10
2915.663565971354
 20
2787.385740973413
 30
0.0
 11
2917.473650401275
 21
2787.385740973413
 31
0.0
  0
SPLINE
  5
1DA
330
6C
100
AcDbEntity
  8
Widoczne (ISO)
100
AcDbSpline
210
0.0
220
0.0
230
1.0
 70
    12
 71
     2
 72
     6
 73
     3
 74
     0
 42
0.0000000001
 43
0.0000000001
 40
0.0
 40
0.0
 40
0.0
 40
0.2918858998468094
 40
0.2918858998468094
 40
0.2918858998468094
 10
2912.951749211972
 20
2782.885740973413
 30
0.0
 41
1.0
 10
2914.402255851056
 20
2785.29409476676
 30
0.0
 41
1.002464176047174
 10
2915.663565971354
 20
2787.385740973413
 30
0.0
 41
1.0
  0
SPLINE
  5
1DB
330
6C
100
AcDbEntity
  8
Widoczne (ISO)
100
AcDbSpline
210
0.0
220
0.0
230
1.0
 70
    12
 71
     2
 72
     6
 73
     3
 74
     0
 42
0.0000000001
 43
0.0000000001
 40
0.0
 40
0.0
 40
0.0
 40
0.4124118197930402
 40
0.4124118197930402
 40
0.4124118197930402
 10
2914.759249374943
 20
2775.685740973413
 30
0.0
 41
1.0
 10
2913.896578842857
 20
2779.12073810179
 30
0.0
 41
1.001043315253878
 10
2912.951749211972
 20
2782.885740973413
 30
0.0
 41
1.0
  0
LINE
  5
1DC
330
6C
100
AcDbEntity
  8
Widoczne (ISO)
100
AcDbLine
 10
2949.673029277271
 20
2787.385740973413
 30
0.0
 11
2935.373339839273
 21
2787.385740973413
 31
0.0
  0
LINE
  5
1DD
330
6C
100
AcDbEntity
  8
Widoczne (ISO)
100
AcDbLine
 10
2931.773339839273
 20
2787.385740973413
 30
0.0
 11
2917.473650401274
 21
2787.385740973413
 31
0.0
  0
LINE
  5
1DE
330
6C
100
AcDbEntity
  8
Widoczne (ISO)
100
AcDbLine
 10
911.2733398392638
 20
2773.885740973412
 30
0.0
 11
866.2733398392639
 21
2773.885740973412
 31
0.0
  0
ARC
  5
1DF
330
6C
100
AcDbEntity
  8
Widoczne (ISO)
100
AcDbCircle
 10
869.8733398392636
 20
2773.885740973412
 30
0.0
 40
3.600000000000003
100
AcDbArc
 50
180.0
 51
270.0
  0
LINE
  5
1E0
330
6C
100
AcDbEntity
  8
Widoczne (ISO)
100
AcDbLine
 10
869.8733398392636
 20
2770.285740973413
 30
0.0
 11
907.6733398392638
 21
2770.285740973413
 31
0.0
  0
ARC
  5
1E1
330
6C
100
AcDbEntity
  8
Widoczne (ISO)
100
AcDbCircle
 10
907.6733398392638
 20
2773.885740973412
 30
0.0
 40
3.599999999999987
100
AcDbArc
 50
270.0
 51
0.0
  0
LINE
  5
1E2
330
6C
100
AcDbEntity
  8
Widoczne (ISO)
100
AcDbLine
 10
890.5733398392637
 20
2787.385740973413
 30
0.0
 11
890.5733398392637
 21
2773.885740973412
 31
0.0
  0
LINE
  5
1E3
330
6C
100
AcDbEntity
  8
Widoczne (ISO)
100
AcDbLine
 10
886.9733398392638
 20
2773.885740973412
 30
0.0
 11
886.9733398392638
 21
2787.385740973413
 31
0.0
  0
LINE
  5
1E4
330
6C
100
AcDbEntity
  8
Widoczne (ISO)
100
AcDbLine
 10
907.587430303594
 20
2775.685740973413
 30
0.0
 11
907.587430303594
 21
2773.885740973412
 31
0.0
  0
SPLINE
  5
1E5
330
6C
100
AcDbEntity
  8
Widoczne (ISO)
100
AcDbSpline
210
0.0
220
0.0
230
1.0
 70
    12
 71
     2
 72
     6
 73
     3
 74
     0
 42
0.0000000001
 43
0.0000000001
 40
0.0
 40
0.0
 40
0.0
 40
0.4124118197930398
 40
0.4124118197930398
 40
0.4124118197930398
 10
909.3949304665651
 20
2782.885740973413
 30
0.0
 41
1.0
 10
908.450100835539
 20
2779.120738101227
 30
0.0
 41
1.001043315288898
 10
907.587430303594
 20
2775.685740973413
 30
0.0
 41
1.0
  0
SPLINE
  5
1E6
330
6C
100
AcDbEntity
  8
Widoczne (ISO)
100
AcDbSpline
210
0.0
220
0.0
230
1.0
 70
    12
 71
     2
 72
     6
 73
     3
 74
     0
 42
0.0000000001
 43
0.0000000001
 40
0.0
 40
0.0
 40
0.0
 40
0.2918858998468096
 40
0.2918858998468096
 40
0.2918858998468096
 10
906.6831137071828
 20
2787.385740973413
 30
0.0
 41
1.0
 10
907.9444238284585
 20
2785.294094765138
 30
0.0
 41
1.002464175917054
 10
909.3949304665651
 20
2782.885740973413
 30
0.0
 41
1.0
  0
LINE
  5
1E7
330
6C
100
AcDbEntity
  8
Widoczne (ISO)
100
AcDbLine
 10
904.8730292772622
 20
2787.385740973413
 30
0.0
 11
906.6831137071828
 21
2787.385740973413
 31
0.0
  0
LINE
  5
1E8
330
6C
100
AcDbEntity
  8
Widoczne (ISO)
100
AcDbLine
 10
904.8730292772622
 20
2773.885740973412
 30
0.0
 11
904.8730292772622
 21
2787.385740973413
 31
0.0
  0
LINE
  5
1E9
330
6C
100
AcDbEntity
  8
Widoczne (ISO)
100
AcDbLine
 10
869.9592493749335
 20
2773.885740973412
 30
0.0
 11
869.9592493749335
 21
2775.685740973413
 31
0.0
  0
LINE
  5
1EA
330
6C
100
AcDbEntity
  8
Widoczne (ISO)
100
AcDbLine
 10
872.6736504012652
 20
2787.385740973413
 30
0.0
 11
872.6736504012652
 21
2773.885740973412
 31
0.0
  0
LINE
  5
1EB
330
6C
100
AcDbEntity
  8
Widoczne (ISO)
100
AcDbLine
 10
870.8635659713447
 20
2787.385740973413
 30
0.0
 11
872.6736504012652
 21
2787.385740973413
 31
0.0
  0
SPLINE
  5
1EC
330
6C
100
AcDbEntity
  8
Widoczne (ISO)
100
AcDbSpline
210
0.0
220
0.0
230
1.0
 70
    12
 71
     2
 72
     6
 73
     3
 74
     0
 42
0.0000000001
 43
0.0000000001
 40
0.0
 40
0.0
 40
0.0
 40
0.2918858998468094
 40
0.2918858998468094
 40
0.2918858998468094
 10
868.1517492119624
 20
2782.885740973413
 30
0.0
 41
1.0
 10
869.6022558510465
 20
2785.29409476676
 30
0.0
 41
1.002464176047174
 10
870.8635659713445
 20
2787.385740973413
 30
0.0
 41
1.0
  0
SPLINE
  5
1ED
330
6C
100
AcDbEntity
  8
Widoczne (ISO)
100
AcDbSpline
210
0.0
220
0.0
230
1.0
 70
    12
 71
     2
 72
     6
 73
     3
 74
     0
 42
0.0000000001
 43
0.0000000001
 40
0.0
 40
0.0
 40
0.0
 40
0.4124118197930402
 40
0.4124118197930402
 40
0.4124118197930402
 10
869.9592493749335
 20
2775.685740973413
 30
0.0
 41
1.0
 10
869.0965788428474
 20
2779.12073810179
 30
0.0
 41
1.001043315253878
 10
868.1517492119624
 20
2782.885740973413
 30
0.0
 41
1.0
  0
LINE
  5
1EE
330
6C
100
AcDbEntity
  8
Widoczne (ISO)
100
AcDbLine
 10
904.8730292772622
 20
2787.385740973413
 30
0.0
 11
890.5733398392639
 21
2787.385740973413
 31
0.0
  0
LINE
  5
1EF
330
6C
100
AcDbEntity
  8
Widoczne (ISO)
100
AcDbLine
 10
886.9733398392638
 20
2787.385740973413
 30
0.0
 11
872.6736504012654
 21
2787.385740973413
 31
0.0
  0
ARC
  5
1F0
330
6C
100
AcDbEntity
  8
Widoczne (ISO)
100
AcDbCircle
 10
978.9173398392653
 20
2633.989740973412
 30
0.0
 40
2.304000000000001
100
AcDbArc
 50
180.0
 51
269.9999999999682
  0
LINE
  5
1F1
330
6C
100
AcDbEntity
  8
Widoczne (ISO)
100
AcDbLine
 10
976.6133398392645
 20
2633.989740973412
 30
0.0
 11
976.6133398392645
 21
2732.701740973412
 31
0.0
  0
ARC
  5
1F2
330
6C
100
AcDbEntity
  8
Widoczne (ISO)
100
AcDbCircle
 10
978.9173398392646
 20
2732.701740973412
 30
0.0
 40
2.304000000000324
100
AcDbArc
 50
89.99999999999204
 51
180.0
  0
LINE
  5
1F3
330
6C
100
AcDbEntity
  8
Widoczne (ISO)
100
AcDbLine
 10
978.9173398392653
 20
2735.005740973412
 30
0.0
 11
1038.173339839264
 21
2735.005740973412
 31
0.0
  0
LINE
  5
1F4
330
6C
100
AcDbEntity
  8
Widoczne (ISO)
100
AcDbLine
 10
1038.173339839264
 20
2735.005740973412
 30
0.0
 11
1038.173339839264
 21
2736.445740973412
 31
0.0
  0
LINE
  5
1F5
330
6C
100
AcDbEntity
  8
Widoczne (ISO)
100
AcDbLine
 10
1038.173339839264
 20
2736.445740973412
 30
0.0
 11
978.9173398377739
 21
2736.445740971921
 31
0.0
  0
ARC
  5
1F6
330
6C
100
AcDbEntity
  8
Widoczne (ISO)
100
AcDbCircle
 10
978.9173398392646
 20
2732.701740973412
 30
0.0
 40
3.744000000000022
100
AcDbArc
 50
90.00000002281437
 51
180.0
  0
LINE
  5
1F7
330
6C
100
AcDbEntity
  8
Widoczne (ISO)
100
AcDbLine
 10
975.1733398392646
 20
2732.701740973412
 30
0.0
 11
975.1733398392646
 21
2633.989740973412
 31
0.0
  0
ARC
  5
1F8
330
6C
100
AcDbEntity
  8
Widoczne (ISO)
100
AcDbCircle
 10
978.9173398392653
 20
2633.989740973412
 30
0.0
 40
3.744000000000007
100
AcDbArc
 50
180.0
 51
269.9999999999804
  0
LINE
  5
1F9
330
6C
100
AcDbEntity
  8
Widoczne (ISO)
100
AcDbLine
 10
978.9173398392639
 20
2630.245740973412
 30
0.0
 11
2843.429339839265
 21
2630.245740973407
 31
0.0
  0
ARC
  5
1FA
330
6C
100
AcDbEntity
  8
Widoczne (ISO)
100
AcDbCircle
 10
2843.429339839265
 20
2633.989740973408
 30
0.0
 40
3.744000000000122
100
AcDbArc
 50
270.0000000000049
 51
0.0
  0
LINE
  5
1FB
330
6C
100
AcDbEntity
  8
Widoczne (ISO)
100
AcDbLine
 10
2847.173339839265
 20
2633.989740973408
 30
0.0
 11
2847.173339839266
 21
2732.701740973408
 31
0.0
  0
ARC
  5
1FC
330
6C
100
AcDbEntity
  8
Widoczne (ISO)
100
AcDbCircle
 10
2843.429339839265
 20
2732.701740973408
 30
0.0
 40
3.743999999999464
100
AcDbArc
 50
0.0
 51
90.00000000000978
  0
LINE
  5
1FD
330
6C
100
AcDbEntity
  8
Widoczne (ISO)
100
AcDbLine
 10
2843.429339839265
 20
2736.445740973408
 30
0.0
 11
2784.173339839265
 21
2736.445740973408
 31
0.0
  0
LINE
  5
1FE
330
6C
100
AcDbEntity
  8
Widoczne (ISO)
100
AcDbLine
 10
2784.173339839265
 20
2736.445740973408
 30
0.0
 11
2784.173339839265
 21
2735.005740973408
 31
0.0
  0
LINE
  5
1FF
330
6C
100
AcDbEntity
  8
Widoczne (ISO)
100
AcDbLine
 10
2784.173339839265
 20
2735.005740973408
 30
0.0
 11
2843.429339839265
 21
2735.005740973408
 31
0.0
  0
ARC
  5
200
330
6C
100
AcDbEntity
  8
Widoczne (ISO)
100
AcDbCircle
 10
2843.429339839265
 20
2732.701740973408
 30
0.0
 40
2.303999999999796
100
AcDbArc
 50
0.0
 51
90.00000000001589
  0
LINE
  5
201
330
6C
100
AcDbEntity
  8
Widoczne (ISO)
100
AcDbLine
 10
2845.733339839265
 20
2732.701740973408
 30
0.0
 11
2845.733339839265
 21
2633.989740973408
 31
0.0
  0
ARC
  5
202
330
6C
100
AcDbEntity
  8
Widoczne (ISO)
100
AcDbCircle
 10
2843.429339839265
 20
2633.989740973407
 30
0.0
 40
2.304000000000004
100
AcDbArc
 50
270.0
 51
0.0
  0
LINE
  5
203
330
6C
100
AcDbEntity
  8
Widoczne (ISO)
100
AcDbLine
 10
2843.429339839265
 20
2631.685740973408
 30
0.0
 11
978.9173398392641
 21
2631.685740973412
 31
0.0
  0
LINE
  5
204
330
6C
100
AcDbEntity
  8
Widoczne (ISO)
100
AcDbLine
 10
2829.173339839265
 20
2736.445740973408
 30
0.0
 11
2829.173339839265
 21
2737.885740973407
 31
0.0
  0
LINE
  5
205
330
6C
100
AcDbEntity
  8
Widoczne (ISO)
100
AcDbLine
 10
2829.173339839265
 20
2737.885740973407
 30
0.0
 11
993.1733398392687
 21
2737.885740973412
 31
0.0
  0
LINE
  5
206
330
6C
100
AcDbEntity
  8
Widoczne (ISO)
100
AcDbLine
 10
993.1733398392685
 20
2737.885740973412
 30
0.0
 11
993.1733398392685
 21
2736.445740973412
 31
0.0
  0
LINE
  5
207
330
6C
100
AcDbEntity
  8
Widoczne (ISO)
100
AcDbLine
 10
993.1733398392685
 20
2736.445740973412
 30
0.0
 11
2829.173339839265
 21
2736.445740973408
 31
0.0
  0
LINE
  5
208
330
6C
100
AcDbEntity
  8
Widoczne (ISO)
100
AcDbLine
 10
959.2821710147207
 20
2687.485740973412
 30
0.0
 11
940.9733398392639
 21
2687.485740973412
 31
0.0
  0
LINE
  5
209
330
6C
100
AcDbEntity
  8
Widoczne (ISO)
100
AcDbLine
 10
940.973339839264
 20
2673.085740973412
 30
0.0
 11
940.9733398392639
 21
2687.485740973412
 31
0.0
  0
LINE
  5
20A
330
6C
100
AcDbEntity
  8
Widoczne (ISO)
100
AcDbLine
 10
959.2821710147207
 20
2673.085740973412
 30
0.0
 11
940.973339839264
 21
2673.085740973412
 31
0.0
  0
LINE
  5
20B
330
6C
100
AcDbEntity
  8
Widoczne (ISO)
100
AcDbLine
 10
964.3733398392638
 20
2644.285740973412
 30
0.0
 11
975.1733398392637
 21
2644.285740973412
 31
0.0
  0
LINE
  5
20C
330
6C
100
AcDbEntity
  8
Widoczne (ISO)
100
AcDbLine
 10
975.1733398392637
 20
2644.285740973412
 30
0.0
 11
975.1733398392637
 21
2716.285740973412
 31
0.0
  0
LINE
  5
20D
330
6C
100
AcDbEntity
  8
Widoczne (ISO)
100
AcDbLine
 10
975.1733398392637
 20
2716.285740973412
 30
0.0
 11
964.3733398392638
 21
2716.285740973412
 31
0.0
  0
LINE
  5
20E
330
6C
100
AcDbEntity
  8
Widoczne (ISO)
100
AcDbLine
 10
964.3733398392638
 20
2716.285740973412
 30
0.0
 11
964.3733398392638
 21
2644.285740973412
 31
0.0
  0
CIRCLE
  5
20F
330
6C
100
AcDbEntity
  8
Widoczne (ISO)
100
AcDbCircle
 10
912.1733398392638
 20
2680.285740973412
 30
0.0
 40
28.79999999999994
  0
CIRCLE
  5
210
330
6C
100
AcDbEntity
  8
Widoczne (ISO)
100
AcDbCircle
 10
912.1733398392638
 20
2680.285740973412
 30
0.0
 40
25.19999999999994
  0
LINE
  5
211
330
6C
100
AcDbEntity
  8
Widoczne (ISO)
100
AcDbLine
 10
978.0533398392647
 20
2633.125740973412
 30
0.0
 11
983.4533398392645
 21
2633.125740973412
 31
0.0
  0
LINE
  5
212
330
6C
100
AcDbEntity
  8
Widoczne (ISO)
100
AcDbLine
 10
983.4533398392645
 20
2633.125740973412
 30
0.0
 11
983.4533398392645
 21
2732.125740973412
 31
0.0
  0
LINE
  5
213
330
6C
100
AcDbEntity
  8
Widoczne (ISO)
100
AcDbLine
 10
983.4533398392645
 20
2732.125740973412
 30
0.0
 11
978.0533398392647
 21
2732.125740973412
 31
0.0
  0
LINE
  5
214
330
6C
100
AcDbEntity
  8
Widoczne (ISO)
100
AcDbLine
 10
978.0533398392647
 20
2732.125740973412
 30
0.0
 11
978.0533398392647
 21
2633.125740973412
 31
0.0
  0
LINE
  5
215
330
6C
100
AcDbEntity
  8
Widoczne (ISO)
100
AcDbLine
 10
961.4933398392638
 20
2691.085740973412
 30
0.0
 11
961.4933398392638
 21
2712.685740973412
 31
0.0
  0
LINE
  5
216
330
6C
100
AcDbEntity
  8
Widoczne (ISO)
100
AcDbLine
 10
964.3733398392638
 20
2691.085740973412
 30
0.0
 11
961.4933398392638
 21
2691.085740973412
 31
0.0
  0
LINE
  5
217
330
6C
100
AcDbEntity
  8
Widoczne (ISO)
100
AcDbLine
 10
964.3733398392638
 20
2712.685740973412
 30
0.0
 11
961.4933398392638
 21
2712.685740973412
 31
0.0
  0
LINE
  5
218
330
6C
100
AcDbEntity
  8
Widoczne (ISO)
100
AcDbLine
 10
961.4933398392638
 20
2647.885740973412
 30
0.0
 11
961.4933398392638
 21
2669.485740973412
 31
0.0
  0
LINE
  5
219
330
6C
100
AcDbEntity
  8
Widoczne (ISO)
100
AcDbLine
 10
964.3733398392638
 20
2647.885740973412
 30
0.0
 11
961.4933398392638
 21
2647.885740973412
 31
0.0
  0
LINE
  5
21A
330
6C
100
AcDbEntity
  8
Widoczne (ISO)
100
AcDbLine
 10
964.3733398392638
 20
2669.485740973412
 30
0.0
 11
961.4933398392638
 21
2669.485740973412
 31
0.0
  0
LINE
  5
21B
330
6C
100
AcDbEntity
  8
Widoczne (ISO)
100
AcDbLine
 10
892.3733398392636
 20
2760.205740973413
 30
0.0
 11
870.7733398392637
 21
2760.205740973413
 31
0.0
  0
LINE
  5
21C
330
6C
100
AcDbEntity
  8
Widoczne (ISO)
100
AcDbLine
 10
892.3733398392638
 20
2763.085740973413
 30
0.0
 11
892.3733398392638
 21
2760.205740973413
 31
0.0
  0
LINE
  5
21D
330
6C
100
AcDbEntity
  8
Widoczne (ISO)
100
AcDbLine
 10
870.7733398392635
 20
2763.085740973413
 30
0.0
 11
870.7733398392635
 21
2760.205740973413
 31
0.0
  0
LINE
  5
21E
330
6C
100
AcDbEntity
  8
Widoczne (ISO)
100
AcDbLine
 10
953.5733398392638
 20
2760.205740973413
 30
0.0
 11
931.9733398392639
 21
2760.205740973413
 31
0.0
  0
LINE
  5
21F
330
6C
100
AcDbEntity
  8
Widoczne (ISO)
100
AcDbLine
 10
953.5733398392638
 20
2763.085740973413
 30
0.0
 11
953.5733398392638
 21
2760.205740973413
 31
0.0
  0
LINE
  5
220
330
6C
100
AcDbEntity
  8
Widoczne (ISO)
100
AcDbLine
 10
931.9733398392637
 20
2763.085740973413
 30
0.0
 11
931.9733398392637
 21
2760.205740973413
 31
0.0
  0
LINE
  5
221
330
6C
100
AcDbEntity
  8
Widoczne (ISO)
100
AcDbLine
 10
950.6933398392639
 20
2693.965740973412
 30
0.0
 11
950.6933398392639
 21
2709.805740973412
 31
0.0
  0
ARC
  5
222
330
6C
100
AcDbEntity
  8
Widoczne (ISO)
100
AcDbCircle
 10
951.7733398392637
 20
2693.965740973412
 30
0.0
 40
1.08
100
AcDbArc
 50
180.0
 51
270.0
  0
ARC
  5
223
330
6C
100
AcDbEntity
  8
Widoczne (ISO)
100
AcDbCircle
 10
951.7733398392637
 20
2709.805740973412
 30
0.0
 40
1.08
100
AcDbArc
 50
90.0
 51
180.0
  0
LINE
  5
224
330
6C
100
AcDbEntity
  8
Widoczne (ISO)
100
AcDbLine
 10
951.7733398392637
 20
2710.885740973412
 30
0.0
 11
961.4933398392638
 21
2710.885740973412
 31
0.0
  0
LINE
  5
225
330
6C
100
AcDbEntity
  8
Widoczne (ISO)
100
AcDbLine
 10
951.7733398392637
 20
2692.885740973411
 30
0.0
 11
961.4933398392638
 21
2692.885740973411
 31
0.0
  0
LINE
  5
226
330
6C
100
AcDbEntity
  8
Widoczne (ISO)
100
AcDbLine
 10
950.6933398392639
 20
2650.765740973412
 30
0.0
 11
950.6933398392639
 21
2666.605740973412
 31
0.0
  0
ARC
  5
227
330
6C
100
AcDbEntity
  8
Widoczne (ISO)
100
AcDbCircle
 10
951.7733398392637
 20
2650.765740973412
 30
0.0
 40
1.08
100
AcDbArc
 50
180.0
 51
270.0
  0
ARC
  5
228
330
6C
100
AcDbEntity
  8
Widoczne (ISO)
100
AcDbCircle
 10
951.7733398392637
 20
2666.605740973412
 30
0.0
 40
1.08
100
AcDbArc
 50
90.0
 51
180.0
  0
LINE
  5
229
330
6C
100
AcDbEntity
  8
Widoczne (ISO)
100
AcDbLine
 10
951.7733398392637
 20
2667.685740973412
 30
0.0
 11
961.4933398392638
 21
2667.685740973412
 31
0.0
  0
LINE
  5
22A
330
6C
100
AcDbEntity
  8
Widoczne (ISO)
100
AcDbLine
 10
951.7733398392637
 20
2649.685740973412
 30
0.0
 11
961.4933398392638
 21
2649.685740973412
 31
0.0
  0
LINE
  5
22B
330
6C
100
AcDbEntity
  8
Widoczne (ISO)
100
AcDbLine
 10
1012.613339839264
 20
2633.125740973412
 30
0.0
 11
980.3573398392645
 21
2633.125740973412
 31
0.0
  0
ARC
  5
22C
330
6C
100
AcDbEntity
  8
Widoczne (ISO)
100
AcDbCircle
 10
980.3573398392645
 20
2635.429740973412
 30
0.0
 40
2.304000000000006
100
AcDbArc
 50
180.0
 51
270.0
  0
LINE
  5
22D
330
6C
100
AcDbEntity
  8
Widoczne (ISO)
100
AcDbLine
 10
978.0533398392647
 20
2635.429740973412
 30
0.0
 11
978.0533398392647
 21
2731.261740973412
 31
0.0
  0
ARC
  5
22E
330
6C
100
AcDbEntity
  8
Widoczne (ISO)
100
AcDbCircle
 10
980.3573398392645
 20
2731.261740973412
 30
0.0
 40
2.303999999999997
100
AcDbArc
 50
90.0
 51
180.0
  0
LINE
  5
22F
330
6C
100
AcDbEntity
  8
Widoczne (ISO)
100
AcDbLine
 10
980.3573398392645
 20
2733.565740973412
 30
0.0
 11
1037.813339839264
 21
2733.565740973412
 31
0.0
  0
LINE
  5
230
330
6C
100
AcDbEntity
  8
Widoczne (ISO)
100
AcDbLine
 10
1037.813339839264
 20
2733.565740973412
 30
0.0
 11
1037.813339839264
 21
2735.005740973412
 31
0.0
  0
LINE
  5
231
330
6C
100
AcDbEntity
  8
Widoczne (ISO)
100
AcDbLine
 10
1037.813339839264
 20
2735.005740973412
 30
0.0
 11
980.3573398392645
 21
2735.005740973412
 31
0.0
  0
ARC
  5
232
330
6C
100
AcDbEntity
  8
Widoczne (ISO)
100
AcDbCircle
 10
980.3573398392645
 20
2731.261740973412
 30
0.0
 40
3.744000000000022
100
AcDbArc
 50
90.0
 51
180.0
  0
LINE
  5
233
330
6C
100
AcDbEntity
  8
Widoczne (ISO)
100
AcDbLine
 10
976.6133398392645
 20
2731.261740973412
 30
0.0
 11
976.6133398392645
 21
2635.429740973412
 31
0.0
  0
ARC
  5
234
330
6C
100
AcDbEntity
  8
Widoczne (ISO)
100
AcDbCircle
 10
980.3573398392645
 20
2635.429740973412
 30
0.0
 40
3.744000000000007
100
AcDbArc
 50
180.0
 51
270.0
  0
LINE
  5
235
330
6C
100
AcDbEntity
  8
Widoczne (ISO)
100
AcDbLine
 10
980.3573398392645
 20
2631.685740973412
 30
0.0
 11
1012.613339839264
 21
2631.685740973412
 31
0.0
  0
LINE
  5
236
330
6C
100
AcDbEntity
  8
Widoczne (ISO)
100
AcDbLine
 10
1012.613339839264
 20
2631.685740973412
 30
0.0
 11
1012.613339839264
 21
2633.125740973412
 31
0.0
  0
LINE
  5
237
330
6C
100
AcDbEntity
  8
Widoczne (ISO)
100
AcDbLine
 10
2841.989339839266
 20
2633.125740973407
 30
0.0
 11
2809.733339839266
 21
2633.125740973407
 31
0.0
  0
LINE
  5
238
330
6C
100
AcDbEntity
  8
Widoczne (ISO)
100
AcDbLine
 10
2809.733339839266
 20
2633.125740973407
 30
0.0
 11
2809.733339839266
 21
2631.685740973408
 31
0.0
  0
LINE
  5
239
330
6C
100
AcDbEntity
  8
Widoczne (ISO)
100
AcDbLine
 10
2809.733339839266
 20
2631.685740973408
 30
0.0
 11
2841.989339839266
 21
2631.685740973408
 31
0.0
  0
ARC
  5
23A
330
6C
100
AcDbEntity
  8
Widoczne (ISO)
100
AcDbCircle
 10
2841.989339839266
 20
2635.429740973407
 30
0.0
 40
3.744000000000007
100
AcDbArc
 50
270.0
 51
0.0
  0
LINE
  5
23B
330
6C
100
AcDbEntity
  8
Widoczne (ISO)
100
AcDbLine
 10
2845.733339839265
 20
2635.429740973407
 30
0.0
 11
2845.733339839265
 21
2731.261740973408
 31
0.0
  0
ARC
  5
23C
330
6C
100
AcDbEntity
  8
Widoczne (ISO)
100
AcDbCircle
 10
2841.989339839266
 20
2731.261740973408
 30
0.0
 40
3.744000000000021
100
AcDbArc
 50
0.0
 51
90.0
  0
LINE
  5
23D
330
6C
100
AcDbEntity
  8
Widoczne (ISO)
100
AcDbLine
 10
2841.989339839266
 20
2735.005740973408
 30
0.0
 11
2784.533339839266
 21
2735.005740973408
 31
0.0
  0
LINE
  5
23E
330
6C
100
AcDbEntity
  8
Widoczne (ISO)
100
AcDbLine
 10
2784.533339839266
 20
2735.005740973408
 30
0.0
 11
2784.533339839266
 21
2733.565740973407
 31
0.0
  0
LINE
  5
23F
330
6C
100
AcDbEntity
  8
Widoczne (ISO)
100
AcDbLine
 10
2784.533339839266
 20
2733.565740973407
 30
0.0
 11
2841.989339839266
 21
2733.565740973407
 31
0.0
  0
ARC
  5
240
330
6C
100
AcDbEntity
  8
Widoczne (ISO)
100
AcDbCircle
 10
2841.989339839266
 20
2731.261740973408
 30
0.0
 40
2.304000000000004
100
AcDbArc
 50
0.0
 51
90.0
  0
LINE
  5
241
330
6C
100
AcDbEntity
  8
Widoczne (ISO)
100
AcDbLine
 10
2844.293339839266
 20
2731.261740973408
 30
0.0
 11
2844.293339839266
 21
2635.429740973407
 31
0.0
  0
ARC
  5
242
330
6C
100
AcDbEntity
  8
Widoczne (ISO)
100
AcDbCircle
 10
2841.989339839266
 20
2635.429740973407
 30
0.0
 40
2.304000000000007
100
AcDbArc
 50
270.0
 51
0.0
  0
CIRCLE
  5
243
330
6C
100
AcDbEntity
  8
Widoczne (ISO)
100
AcDbCircle
 10
2524.973339839255
 20
2681.905740973408
 30
0.0
 40
16.20000000000011
  0
CIRCLE
  5
244
330
6C
100
AcDbEntity
  8
Widoczne (ISO)
100
AcDbCircle
 10
2524.973339839255
 20
2681.905740973408
 30
0.0
 40
18.00000000000012
  0
LINE
  5
245
330
6C
100
AcDbEntity
  8
Widoczne (ISO)
100
AcDbLine
 10
2697.901464135038
 20
2588.845740973407
 30
0.0
 11
2585.290197263736
 21
2588.845740973407
 31
0.0
  0
LINE
  5
246
330
6C
100
AcDbEntity
  8
Widoczne (ISO)
100
AcDbLine
 10
2741.78966918838
 20
2588.845740973407
 30
0.0
 11
2697.901464135036
 21
2588.845740973407
 31
0.0
  0
ARC
  5
247
330
6C
100
AcDbEntity
  8
Widoczne (ISO)
100
AcDbCircle
 10
2741.78966918838
 20
2590.645740973407
 30
0.0
 40
1.800000000000024
100
AcDbArc
 50
270.0000000000102
 51
356.100000000004
  0
LINE
  5
248
330
6C
100
AcDbEntity
  8
Widoczne (ISO)
100
AcDbLine
 10
2743.585500890284
 20
2590.523313450209
 30
0.0
 11
2746.293504325071
 21
2630.245740973407
 31
0.0
  0
LINE
  5
249
330
6C
100
AcDbEntity
  8
Widoczne (ISO)
100
AcDbLine
 10
2697.158043295531
 20
2779.645740973407
 30
0.0
 11
2741.789669188381
 21
2779.645740973407
 31
0.0
  0
LINE
  5
24A
330
6C
100
AcDbEntity
  8
Widoczne (ISO)
100
AcDbLine
 10
2585.252861934746
 20
2779.645740973407
 30
0.0
 11
2697.158043295531
 21
2779.645740973407
 31
0.0
  0
ARC
  5
24B
330
6C
100
AcDbEntity
  8
Widoczne (ISO)
100
AcDbCircle
 10
2741.789669188381
 20
2777.845740973407
 30
0.0
 40
1.8
100
AcDbArc
 50
3.899999999995981
 51
90.0
  0
LINE
  5
24C
330
6C
100
AcDbEntity
  8
Widoczne (ISO)
100
AcDbLine
 10
2698.9685034357
 20
2738.245740973407
 30
0.0
 11
2746.293504325072
 21
2738.245740973407
 31
0.0
  0
LINE
  5
24D
330
6C
100
AcDbEntity
  8
Widoczne (ISO)
100
AcDbLine
 10
2585.251988878419
 20
2738.245740973408
 30
0.0
 11
2698.968503435701
 21
2738.245740973407
 31
0.0
  0
LINE
  5
24E
330
6C
100
AcDbEntity
  8
Widoczne (ISO)
100
AcDbLine
 10
2743.585500890285
 20
2777.968168496605
 30
0.0
 11
2746.293504325072
 21
2738.245740973407
 31
0.0
  0
LINE
  5
24F
330
6C
100
AcDbEntity
  8
Widoczne (ISO)
100
AcDbLine
 10
2463.502872650803
 20
2588.845740973408
 30
0.0
 11
2398.97717497596
 21
2588.845740973408
 31
0.0
  0
SPLINE
  5
250
330
6C
100
AcDbEntity
  8
Widoczne (ISO)
100
AcDbSpline
210
0.0
220
0.0
230
1.0
 70
     8
 71
     3
 72
    14
 73
    10
 74
     0
 42
0.0000000001
 43
0.0000000001
 40
0.4450174960849384
 40
0.4450174960849384
 40
0.4450174960849384
 40
0.4450174960849384
 40
0.4822012682666344
 40
0.4822012682666344
 40
0.5193226583162096
 40
0.5193226583162096
 40
0.5563695428457814
 40
0.5563695428457814
 40
0.5867358690286423
 40
0.5867358690286423
 40
0.5867358690286423
 40
0.5867358690286423
 10
2585.290197263751
 20
2588.845740973407
 30
0.0
 10
2585.29024037246
 20
2588.845740973407
 30
0.0
 10
2585.290291113593
 20
2588.89784957296
 30
0.0
 10
2585.290370723364
 20
2589.06818557072
 30
0.0
 10
2585.290413695867
 20
2589.216424065944
 30
0.0
 10
2585.29047455723
 20
2589.530783625231
 30
0.0
 10
2585.290503239543
 20
2589.752400870517
 30
0.0
 10
2585.290533196328
 20
2590.12598761382
 30
0.0
 10
2585.290542862526
 20
2590.331967726742
 30
0.0
 10
2585.290545391227
 20
2590.52331345021
 30
0.0
  0
LINE
  5
251
330
6C
100
AcDbEntity
  8
Widoczne (ISO)
100
AcDbLine
 10
2585.290197263751
 20
2588.845740973407
 30
0.0
 11
2463.502872650803
 21
2588.845740973408
 31
0.0
  0
ARC
  5
252
330
6C
100
AcDbEntity
  8
Widoczne (ISO)
100
AcDbCircle
 10
2398.977174975959
 20
2590.645740973407
 30
0.0
 40
1.800000000000025
100
AcDbArc
 50
183.8999999999959
 51
270.0
  0
SPLINE
  5
253
330
6C
100
AcDbEntity
  8
Widoczne (ISO)
100
AcDbSpline
210
0.0
220
0.0
230
1.0
 70
    12
 71
     2
 72
     6
 73
     3
 74
     0
 42
0.0000000001
 43
0.0000000001
 40
122.9613098086239
 40
122.9613098086239
 40
122.9613098086239
 40
125.0949698528305
 40
125.0949698528305
 40
125.0949698528305
 10
2585.290545391227
 20
2590.52331345021
 30
0.0
 41
1.035786940672542
 10
2585.29080684754
 20
2610.307595516974
 30
0.0
 41
1.035653113966274
 10
2585.291070324148
 20
2630.245740973317
 30
0.0
 41
1.035503867345319
  0
LINE
  5
254
330
6C
100
AcDbEntity
  8
Widoczne (ISO)
100
AcDbLine
 10
2397.181343274056
 20
2590.52331345021
 30
0.0
 11
2394.473339839269
 21
2630.245740973408
 31
0.0
  0
SPLINE
  5
255
330
6C
100
AcDbEntity
  8
Widoczne (ISO)
100
AcDbSpline
210
0.0
220
0.0
230
1.0
 70
     8
 71
     3
 72
    14
 73
    10
 74
     0
 42
0.0000000001
 43
0.0000000001
 40
0.5999731993833883
 40
0.5999731993833883
 40
0.5999731993833883
 40
0.5999731993833883
 40
0.6303395809138004
 40
0.6303395809138004
 40
0.6673864324337897
 40
0.6673864324337897
 40
0.7045076817363956
 40
0.7045076817363956
 40
0.7416912229450925
 40
0.7416912229450925
 40
0.7416912229450925
 40
0.7416912229450925
 10
2585.252507089137
 20
2777.968168496605
 30
0.0
 10
2585.252509617832
 20
2778.159514568514
 30
0.0
 10
2585.252519284015
 20
2778.365495106136
 30
0.0
 10
2585.252549240741
 20
2778.739082122755
 30
0.0
 10
2585.252577922959
 20
2778.960699412028
 30
0.0
 10
2585.252638784093
 20
2779.275058682504
 30
0.0
 10
2585.252681756386
 20
2779.423296978063
 30
0.0
 10
2585.252761365727
 20
2779.593632522265
 30
0.0
 10
2585.252812106538
 20
2779.645740973407
 30
0.0
 10
2585.25285521498
 20
2779.645740973407
 30
0.0
  0
LINE
  5
256
330
6C
100
AcDbEntity
  8
Widoczne (ISO)
100
AcDbLine
 10
2461.975446521737
 20
2779.645740973407
 30
0.0
 11
2585.25285521498
 21
2779.645740973407
 31
0.0
  0
LINE
  5
257
330
6C
100
AcDbEntity
  8
Widoczne (ISO)
100
AcDbLine
 10
2398.977174975958
 20
2779.645740973408
 30
0.0
 11
2461.975446521737
 21
2779.645740973407
 31
0.0
  0
ARC
  5
258
330
6C
100
AcDbEntity
  8
Widoczne (ISO)
100
AcDbCircle
 10
2398.977174975958
 20
2777.845740973408
 30
0.0
 40
1.8
100
AcDbArc
 50
90.00000000001017
 51
176.100000000004
  0
LINE
  5
259
330
6C
100
AcDbEntity
  8
Widoczne (ISO)
100
AcDbLine
 10
2585.252861934757
 20
2779.645740973407
 30
0.0
 11
2585.25285521498
 21
2779.645740973407
 31
0.0
  0
SPLINE
  5
25A
330
6C
100
AcDbEntity
  8
Widoczne (ISO)
100
AcDbSpline
210
0.0
220
0.0
230
1.0
 70
    12
 71
     2
 72
     6
 73
     3
 74
     0
 42
0.0000000001
 43
0.0000000001
 40
83.7890791659182
 40
83.7890791659182
 40
83.7890791659182
 40
85.92271378646316
 40
85.92271378646316
 40
85.92271378646316
 10
2585.251982158653
 20
2738.245740973503
 30
0.0
 41
1.035515924027254
 10
2585.252245634204
 20
2758.183898294627
 30
0.0
 41
1.035665244993784
 10
2585.252507089137
 20
2777.968168496605
 30
0.0
 41
1.035799140978274
  0
LINE
  5
25B
330
6C
100
AcDbEntity
  8
Widoczne (ISO)
100
AcDbLine
 10
2585.251988878428
 20
2738.245740973408
 30
0.0
 11
2585.251982158653
 21
2738.245740973408
 31
0.0
  0
LINE
  5
25C
330
6C
100
AcDbEntity
  8
Widoczne (ISO)
100
AcDbLine
 10
2460.717142484234
 20
2738.245740973408
 30
0.0
 11
2585.251982158653
 21
2738.245740973407
 31
0.0
  0
LINE
  5
25D
330
6C
100
AcDbEntity
  8
Widoczne (ISO)
100
AcDbLine
 10
2394.473339839268
 20
2738.245740973408
 30
0.0
 11
2460.717142484235
 21
2738.245740973408
 31
0.0
  0
SPLINE
  5
25E
330
6C
100
AcDbEntity
  8
Widoczne (ISO)
100
AcDbSpline
210
0.0
220
0.0
230
1.0
 70
     8
 71
     3
 72
     8
 73
     4
 74
     0
 42
0.0000000001
 43
0.0000000001
 40
97.59319352315642
 40
97.59319352315642
 40
97.59319352315642
 40
97.59319352315642
 40
99.60963639162478
 40
99.60963639162478
 40
99.60963639162478
 40
99.60963639162478
 10
2460.717142484238
 20
2738.245740973408
 30
0.0
 10
2460.969377666267
 20
2751.491496571485
 30
0.0
 10
2461.221552733468
 20
2764.732537890413
 30
0.0
 10
2461.473656060251
 20
2777.968168496605
 30
0.0
  0
LINE
  5
25F
330
6C
100
AcDbEntity
  8
Widoczne (ISO)
100
AcDbLine
 10
2397.181343274055
 20
2777.968168496605
 30
0.0
 11
2394.473339839268
 21
2738.245740973408
 31
0.0
  0
LINE
  5
260
330
6C
100
AcDbEntity
  8
Widoczne (ISO)
100
AcDbLine
 10
2451.173339839267
 20
2733.565740973408
 30
0.0
 11
2451.173339839267
 21
2736.445740973409
 31
0.0
  0
LINE
  5
261
330
6C
100
AcDbEntity
  8
Widoczne (ISO)
100
AcDbLine
 10
2451.173339839267
 20
2737.885740973408
 30
0.0
 11
2451.173339839267
 21
2738.245740973408
 31
0.0
  0
LINE
  5
262
330
6C
100
AcDbEntity
  8
Widoczne (ISO)
100
AcDbLine
 10
2523.173339839266
 20
2733.565740973408
 30
0.0
 11
2523.173339839266
 21
2736.445740973409
 31
0.0
  0
LINE
  5
263
330
6C
100
AcDbEntity
  8
Widoczne (ISO)
100
AcDbLine
 10
2523.173339839266
 20
2737.885740973408
 30
0.0
 11
2523.173339839266
 21
2738.245740973408
 31
0.0
  0
LINE
  5
264
330
6C
100
AcDbEntity
  8
Widoczne (ISO)
100
AcDbLine
 10
2412.473339839268
 20
2844.445740973411
 30
0.0
 11
2561.873339839265
 21
2844.445740973411
 31
0.0
  0
LINE
  5
265
330
6C
100
AcDbEntity
  8
Widoczne (ISO)
100
AcDbLine
 10
2567.273339839264
 20
2839.045740973411
 30
0.0
 11
2407.073339839268
 21
2839.045740973412
 31
0.0
  0
LINE
  5
266
330
6C
100
AcDbEntity
  8
Widoczne (ISO)
100
AcDbLine
 10
2561.873339839265
 20
2844.445740973411
 30
0.0
 11
2567.273339839264
 21
2839.045740973411
 31
0.0
  0
LINE
  5
267
330
6C
100
AcDbEntity
  8
Widoczne (ISO)
100
AcDbLine
 10
2412.473339839268
 20
2844.445740973411
 30
0.0
 11
2407.073339839268
 21
2839.045740973411
 31
0.0
  0
LINE
  5
268
330
6C
100
AcDbEntity
  8
Widoczne (ISO)
100
AcDbLine
 10
2567.273339839264
 20
2839.045740973411
 30
0.0
 11
2567.273339839264
 21
2779.645740973407
 31
0.0
  0
LINE
  5
269
330
6C
100
AcDbEntity
  8
Widoczne (ISO)
100
AcDbLine
 10
2407.073339839268
 20
2839.045740973411
 30
0.0
 11
2407.073339839268
 21
2779.645740973407
 31
0.0
  0
LINE
  5
26A
330
6C
100
AcDbEntity
  8
Widoczne (ISO)
100
AcDbLine
 10
2561.873339839266
 20
2529.445740973407
 30
0.0
 11
2412.473339839265
 21
2529.445740973408
 31
0.0
  0
LINE
  5
26B
330
6C
100
AcDbEntity
  8
Widoczne (ISO)
100
AcDbLine
 10
2407.073339839266
 20
2534.845740973408
 30
0.0
 11
2567.273339839266
 21
2534.845740973407
 31
0.0
  0
LINE
  5
26C
330
6C
100
AcDbEntity
  8
Widoczne (ISO)
100
AcDbLine
 10
2412.473339839265
 20
2529.445740973408
 30
0.0
 11
2407.073339839265
 21
2534.845740973408
 31
0.0
  0
LINE
  5
26D
330
6C
100
AcDbEntity
  8
Widoczne (ISO)
100
AcDbLine
 10
2561.873339839266
 20
2529.445740973407
 30
0.0
 11
2567.273339839266
 21
2534.845740973408
 31
0.0
  0
LINE
  5
26E
330
6C
100
AcDbEntity
  8
Widoczne (ISO)
100
AcDbLine
 10
2407.073339839266
 20
2534.845740973408
 30
0.0
 11
2407.073339839266
 21
2588.845740973408
 31
0.0
  0
LINE
  5
26F
330
6C
100
AcDbEntity
  8
Widoczne (ISO)
100
AcDbLine
 10
2567.273339839266
 20
2534.845740973408
 30
0.0
 11
2567.273339839266
 21
2588.845740973408
 31
0.0
  0
LINE
  5
270
330
6C
100
AcDbEntity
  8
Widoczne (ISO)
100
AcDbLine
 10
2026.684843241892
 20
2889.128079569346
 30
0.0
 11
2407.073339839277
 21
2833.546913659178
 31
0.0
  0
LINE
  5
271
330
6C
100
AcDbEntity
  8
Widoczne (ISO)
100
AcDbLine
 10
2020.1786723412
 20
2844.600899777549
 30
0.0
 11
2407.073339839277
 21
2788.069072720932
 31
0.0
  0
LINE
  5
272
330
6C
100
AcDbEntity
  8
Widoczne (ISO)
100
AcDbLine
 10
2020.178672341184
 20
2529.290582169272
 30
0.0
 11
2407.073339839289
 21
2585.822409225889
 31
0.0
  0
LINE
  5
273
330
6C
100
AcDbEntity
  8
Widoczne (ISO)
100
AcDbLine
 10
2026.684843241875
 20
2484.763402377475
 30
0.0
 11
2407.073339839289
 21
2540.344568287644
 31
0.0
  0
SPLINE
  5
274
330
6C
100
AcDbEntity
  8
Widoczne (ISO)
100
AcDbSpline
210
0.0
220
0.0
230
1.0
 70
     8
 71
     3
 72
    26
 73
    22
 74
     0
 42
0.0000000001
 43
0.0000000001
 40
0.1554862163720311
 40
0.1554862163720311
 40
0.1554862163720311
 40
0.1554862163720311
 40
0.2293716900323587
 40
0.2293716900323587
 40
0.3056618093556158
 40
0.3056618093556158
 40
0.3819519286788729
 40
0.3819519286788729
 40
0.4582420480021301
 40
0.4582420480021301
 40
0.5347828333566809
 40
0.5347828333566809
 40
0.6113236187112318
 40
0.6113236187112318
 40
0.6860827487564503
 40
0.6860827487564503
 40
0.7608418788016689
 40
0.7608418788016689
 40
0.8356163316562135
 40
0.8356163316562135
 40
0.8815599417331124
 40
0.8815599417331124
 40
0.8815599417331124
 40
0.8815599417331124
 10
2007.988047404862
 20
2843.560396730921
 30
0.0
 10
2007.56798319191
 20
2843.542963339212
 30
0.0
 10
2007.149868729203
 20
2843.522145635375
 30
0.0
 10
2006.43087968795
 20
2843.491001842776
 30
0.0
 10
2006.134374680044
 20
2843.481712844753
 30
0.0
 10
2005.737237273828
 20
2843.481712844753
 30
0.0
 10
2005.611302068438
 20
2843.491001842776
 30
0.0
 10
2005.567625812803
 20
2843.522644316847
 30
0.0
 10
2005.649690263027
 20
2843.544324208285
 30
0.0
 10
2005.964541861383
 20
2843.579909778012
 30
0.0
 10
2006.218807799625
 20
2843.596089530047
 30
0.0
 10
2006.877431499612
 20
2843.604877509113
 30
0.0
 10
2007.281843260168
 20
2843.596756438061
 30
0.0
 10
2008.103770286892
 20
2843.556366925056
 30
0.0
 10
2008.573895511727
 20
2843.522025217361
 30
0.0
 10
2009.521737668563
 20
2843.435519888456
 30
0.0
 10
2009.999517167202
 20
2843.384048690736
 30
0.0
 10
2010.838673061877
 20
2843.292800791142
 30
0.0
 10
2011.256367435759
 20
2843.247018490464
 30
0.0
 10
2011.824755597253
 20
2843.195751035859
 30
0.0
 10
2012.016331310118
 20
2843.181789871281
 30
0.0
 10
2012.177049213578
 20
2843.173924537466
 30
0.0
  0
ELLIPSE
  5
275
330
6C
100
AcDbEntity
  8
Widoczne (ISO)
100
AcDbEllipse
 10
2023.431757791545
 20
2866.864489673448
 30
0.0
 11
-3.513332286373226
 21
-24.04467708757045
 31
0.0
210
0.0
220
0.0
230
1.0
 40
0.4300904714619515
 41
2.754276052701194
 42
6.670501908068291
  0
ELLIPSE
  5
276
330
6C
100
AcDbEntity
  8
Widoczne (ISO)
100
AcDbEllipse
 10
2023.431757791545
 20
2866.864489673448
 30
0.0
 11
-3.253085450345569
 21
-22.26358989589856
 31
0.0
210
0.0
220
0.0
230
1.0
 40
0.4300904714619517
 41
3.141592653589797
 42
6.28318530717959
  0
LINE
  5
277
330
6C
100
AcDbEntity
  8
Widoczne (ISO)
100
AcDbLine
 10
2020.352506713029
 20
2842.777726585545
 30
0.0
 11
2012.177739666959
 21
2843.173683147011
 31
0.0
  0
LINE
  5
278
330
6C
100
AcDbEntity
  8
Widoczne (ISO)
100
AcDbLine
 10
2005.738517621609
 20
2843.485576098236
 30
0.0
 11
1975.055187080507
 21
2844.971767201526
 31
0.0
  0
LINE
  5
279
330
6C
100
AcDbEntity
  8
Widoczne (ISO)
100
AcDbLine
 10
2027.373065216306
 20
2890.825291810287
 30
0.0
 11
1983.341751093649
 21
2901.683669071523
 31
0.0
  0
SPLINE
  5
27A
330
6C
100
AcDbEntity
  8
Widoczne (ISO)
100
AcDbSpline
210
0.0
220
0.0
230
1.0
 70
     8
 71
     3
 72
    28
 73
    24
 74
     0
 42
0.0000000001
 43
0.0000000001
 40
4.733457909815608
 40
4.733457909815608
 40
4.733457909815608
 40
4.733457909815608
 40
4.948234933285697
 40
4.948234933285697
 40
5.189120929812566
 40
5.189120929812566
 40
5.517762300591223
 40
5.517762300591223
 40
5.87380062862429
 40
5.87380062862429
 40
6.215996895473628
 40
6.215996895473628
 40
6.552256412044062
 40
6.552256412044062
 40
6.8892044869353
 40
6.8892044869353
 40
7.233668099554642
 40
7.233668099554642
 40
7.591313647573953
 40
7.591313647573953
 40
7.889132138623081
 40
7.889132138623081
 40
7.958434560076813
 40
7.958434560076813
 40
7.958434560076813
 40
7.958434560076813
 10
1975.055187080507
 20
2844.971767201526
 30
0.0
 10
1973.686414806143
 20
2845.038065648947
 30
0.0
 10
1972.33772184543
 20
2845.46217823072
 30
0.0
 10
1969.865244127991
 20
2846.914808878498
 30
0.0
 10
1968.780862907015
 20
2847.982496521554
 30
0.0
 10
1966.65540860884
 20
2850.899778798316
 30
0.0
 10
1965.74895200879
 20
2852.907711308591
 30
0.0
 10
1964.33015589898
 20
2857.60905871742
 30
0.0
 10
1963.865456412985
 20
2860.354171146263
 30
0.0
 10
1963.456255287462
 20
2866.098901911299
 30
0.0
 10
1963.495102218693
 20
2869.082315280909
 30
0.0
 10
1964.027296920555
 20
2875.050113267957
 30
0.0
 10
1964.512911817539
 20
2878.031785527996
 30
0.0
 10
1965.884525123719
 20
2883.76411729713
 30
0.0
 10
1966.770360878437
 20
2886.512721304273
 30
0.0
 10
1968.904572582606
 20
2891.571977485451
 30
0.0
 10
1970.156585690781
 20
2893.871004929343
 30
0.0
 10
1973.050885306376
 20
2897.829833529995
 30
0.0
 10
1974.701849010616
 20
2899.482313283009
 30
0.0
 10
1978.260441030562
 20
2901.520564075148
 30
0.0
 10
1980.137508648695
 20
2902.05061073594
 30
0.0
 10
1982.473754930506
 20
2901.861042066979
 30
0.0
 10
1982.91243127971
 20
2901.789541825911
 30
0.0
 10
1983.341751093649
 20
2901.683669071523
 30
0.0
  0
SPLINE
  5
27B
330
6C
100
AcDbEntity
  8
Widoczne (ISO)
100
AcDbSpline
210
0.0
220
0.0
230
1.0
 70
     8
 71
     3
 72
    18
 73
    14
 74
     0
 42
0.0000000001
 43
0.0000000001
 40
0.0
 40
0.0
 40
0.0
 40
0.0
 40
0.0765407853545508
 40
0.0765407853545508
 40
0.1530815707091016
 40
0.1530815707091016
 40
0.2293716900323587
 40
0.2293716900323587
 40
0.3056618093556158
 40
0.3056618093556158
 40
0.3819519286788729
 40
0.3819519286788729
 40
0.4558374023390293
 40
0.4558374023390293
 40
0.4558374023390293
 40
0.4558374023390293
 10
2007.69764613726
 20
2530.315158071708
 30
0.0
 10
2007.28184326015
 20
2530.29472550876
 30
0.0
 10
2006.877431499595
 20
2530.286604437708
 30
0.0
 10
2006.218807799607
 20
2530.295392416775
 30
0.0
 10
2005.964541861366
 20
2530.311572168809
 30
0.0
 10
2005.64969026301
 20
2530.347157738536
 30
0.0
 10
2005.567625812787
 20
2530.368837629973
 30
0.0
 10
2005.611302068421
 20
2530.400480104046
 30
0.0
 10
2005.737237273811
 20
2530.409769102068
 30
0.0
 10
2006.134374680026
 20
2530.409769102068
 30
0.0
 10
2006.430879687933
 20
2530.400480104046
 30
0.0
 10
2007.149868729185
 20
2530.369336311446
 30
0.0
 10
2007.567983191892
 20
2530.348518607608
 30
0.0
 10
2007.988047404842
 20
2530.3310852159
 30
0.0
  0
SPLINE
  5
27C
330
6C
100
AcDbEntity
  8
Widoczne (ISO)
100
AcDbSpline
210
0.0
220
0.0
230
1.0
 70
     8
 71
     3
 72
    14
 73
    10
 74
     0
 42
0.0000000001
 43
0.0000000001
 40
0.9392216272884073
 40
0.9392216272884073
 40
0.9392216272884073
 40
0.9392216272884073
 40
0.9851652373653026
 40
0.9851652373653026
 40
1.059939690219847
 40
1.059939690219847
 40
1.134698820265065
 40
1.134698820265065
 40
1.209457950310284
 40
1.209457950310284
 40
1.209457950310284
 40
1.209457950310284
 10
2012.177049213561
 20
2530.717557409355
 30
0.0
 10
2012.016331310101
 20
2530.70969207554
 30
0.0
 10
2011.824755597236
 20
2530.695730910962
 30
0.0
 10
2011.256367435742
 20
2530.644463456356
 30
0.0
 10
2010.83867306186
 20
2530.598681155679
 30
0.0
 10
2009.999517167186
 20
2530.507433256085
 30
0.0
 10
2009.521737668546
 20
2530.455962058365
 30
0.0
 10
2008.57389551171
 20
2530.369456729461
 30
0.0
 10
2008.103770286875
 20
2530.335115021765
 30
0.0
 10
2007.69764613726
 20
2530.315158071708
 30
0.0
  0
ELLIPSE
  5
27D
330
6C
100
AcDbEntity
  8
Widoczne (ISO)
100
AcDbEllipse
 10
2023.431757791528
 20
2507.026992273373
 30
0.0
 11
3.513332286373238
 21
-24.04467708757044
 31
0.0
210
0.0
220
0.0
230
0.9999999999999998
 40
0.4300904714619505
 41
2.754276052701145
 42
6.670501908068247
  0
ELLIPSE
  5
27E
330
6C
100
AcDbEntity
  8
Widoczne (ISO)
100
AcDbEllipse
 10
2023.431757791528
 20
2507.026992273373
 30
0.0
 11
3.25308545034544
 21
-22.26358989589856
 31
0.0
210
0.0
220
0.0
230
1.0
 40
0.4300904714619504
 41
3.141592653589929
 42
6.283185307179722
  0
LINE
  5
27F
330
6C
100
AcDbEntity
  8
Widoczne (ISO)
100
AcDbLine
 10
2027.37306521629
 20
2483.066190136534
 30
0.0
 11
1983.341751093631
 21
2472.207812875299
 31
0.0
  0
LINE
  5
280
330
6C
100
AcDbEntity
  8
Widoczne (ISO)
100
AcDbLine
 10
2020.352506713012
 20
2531.113755361275
 30
0.0
 11
2012.177739666942
 21
2530.717798799811
 31
0.0
  0
LINE
  5
281
330
6C
100
AcDbEntity
  8
Widoczne (ISO)
100
AcDbLine
 10
2005.738517621592
 20
2530.405905848585
 30
0.0
 11
1975.055187080489
 21
2528.919714745295
 31
0.0
  0
SPLINE
  5
282
330
6C
100
AcDbEntity
  8
Widoczne (ISO)
100
AcDbSpline
210
0.0
220
0.0
230
1.0
 70
     8
 71
     3
 72
    28
 73
    24
 74
     0
 42
0.0000000001
 43
0.0000000001
 40
1.466343400692568
 40
1.466343400692568
 40
1.466343400692568
 40
1.466343400692568
 40
1.681120424162652
 40
1.681120424162652
 40
1.922006420689516
 40
1.922006420689516
 40
2.250647791468173
 40
2.250647791468173
 40
2.606686119501242
 40
2.606686119501242
 40
2.94888238635058
 40
2.94888238635058
 40
3.285141902921014
 40
3.285141902921014
 40
3.622089977812251
 40
3.622089977812251
 40
3.966553590431594
 40
3.966553590431594
 40
4.324199138450906
 40
4.324199138450906
 40
4.622017629500039
 40
4.622017629500039
 40
4.691320050953773
 40
4.691320050953773
 40
4.691320050953773
 40
4.691320050953773
 10
1983.341751093631
 20
2472.207812875299
 30
0.0
 10
1982.011234355249
 20
2471.879699736147
 30
0.0
 10
1980.597577934907
 20
2471.900186549466
 30
0.0
 10
1977.812834964672
 20
2472.584648711914
 30
0.0
 10
1976.468297190197
 20
2473.297430381535
 30
0.0
 10
1973.596996128479
 20
2475.48460254415
 30
0.0
 10
1972.153916911939
 20
2477.149228300404
 30
0.0
 10
1969.449264887872
 20
2481.248070489173
 30
0.0
 10
1968.218548436332
 20
2483.745454095104
 30
0.0
 10
1966.18274465063
 20
2489.132928463489
 30
0.0
 10
1965.366338688713
 20
2492.002727362956
 30
0.0
 10
1964.168748087735
 20
2497.87329980245
 30
0.0
 10
1963.780929941346
 20
2500.869261814858
 30
0.0
 10
1963.45503655718
 20
2506.754390876763
 30
0.0
 10
1963.517393595379
 20
2509.641541820549
 30
0.0
 10
1964.114799823754
 20
2515.099933387971
 30
0.0
 10
1964.656660236069
 20
2517.661075965879
 30
0.0
 10
1966.297236585784
 20
2522.28252632209
 30
0.0
 10
1967.406361782449
 20
2524.338301549338
 30
0.0
 10
1970.232983118732
 20
2527.309539553494
 30
0.0
 10
1971.879915387151
 20
2528.354501949421
 30
0.0
 10
1974.172728982159
 20
2528.84131689175
 30
0.0
 10
1974.613523295883
 20
2528.898322126705
 30
0.0
 10
1975.055187080489
 20
2528.919714745295
 30
0.0
  0
ELLIPSE
  5
283
330
6C
100
AcDbEntity
  8
Widoczne (ISO)
100
AcDbEllipse
 10
2452.42582325386
 20
2805.74574097341
 30
0.0
 11
0.000000000000002
 21
14.39999999999998
 31
0.0
210
0.0
220
0.0
230
1.0
 40
0.9010083687611242
 41
3.141592638688646
 42
6.283185307179588
  0
SPLINE
  5
284
330
6C
100
AcDbEntity
  8
Widoczne (ISO)
100
AcDbSpline
210
0.0
220
0.0
230
1.0
 70
     8
 71
     3
 72
    26
 73
    22
 74
     0
 42
0.0000000001
 43
0.0000000001
 40
5.289006243487586
 40
5.289006243487586
 40
5.289006243487586
 40
5.289006243487586
 40
5.59366077417351
 40
5.59366077417351
 40
5.901859471673116
 40
5.901859471673116
 40
6.218510633797276
 40
6.218510633797276
 40
6.543990871042165
 40
6.543990871042165
 40
6.875253962671264
 40
6.875253962671264
 40
7.208310324600939
 40
7.208310324600939
 40
7.539175967902718
 40
7.539175967902718
 40
7.863725321038642
 40
7.863725321038642
 40
8.178992224754731
 40
8.178992224754731
 40
8.430598897077379
 40
8.430598897077379
 40
8.430598897077379
 40
8.430598897077379
 10
2452.42582325386
 20
2791.345740973411
 30
0.0
 10
2451.031885206576
 20
2791.345740973411
 30
0.0
 10
2449.638651555043
 20
2791.584164655436
 30
0.0
 10
2446.987426472926
 20
2792.509417601049
 30
0.0
 10
2445.731995367749
 20
2793.200467236633
 30
0.0
 10
2443.46474416874
 20
2794.969899080049
 30
0.0
 10
2442.460454255841
 20
2796.05750758538
 30
0.0
 10
2440.79895454912
 20
2798.527583446734
 30
0.0
 10
2440.15185184093
 20
2799.917076922776
 30
0.0
 10
2439.285980816774
 20
2802.858192027145
 30
0.0
 10
2439.074855094288
 20
2804.412175968384
 30
0.0
 10
2439.118148427435
 20
2807.521672044268
 30
0.0
 10
2439.375118618084
 20
2809.077104205908
 30
0.0
 10
2440.338883235762
 20
2812.021057624239
 30
0.0
 10
2441.042947078745
 20
2813.410511114933
 30
0.0
 10
2442.829092350572
 20
2815.865095167581
 30
0.0
 10
2443.904115586049
 20
2816.935465327679
 30
0.0
 10
2446.307183460962
 20
2818.633243610258
 30
0.0
 10
2447.62709374541
 20
2819.271433286649
 30
0.0
 10
2450.123660611702
 20
2819.983693738868
 30
0.0
 10
2451.274604157557
 20
2820.145740973411
 30
0.0
 10
2452.42582325386
 20
2820.145740973411
 30
0.0
  0
ELLIPSE
  5
285
330
6C
100
AcDbEntity
  8
Widoczne (ISO)
100
AcDbEllipse
 10
2452.42582325386
 20
2568.145740973408
 30
0.0
 11
0.0000000000000515
 21
14.39999999999998
 31
0.0
210
0.0
220
0.0
230
1.0
 40
0.9010083687611578
 41
3.1415926535898
 42
6.283185307179593
  0
SPLINE
  5
286
330
6C
100
AcDbEntity
  8
Widoczne (ISO)
100
AcDbSpline
210
0.0
220
0.0
230
1.0
 70
     8
 71
     3
 72
    26
 73
    22
 74
     0
 42
0.0000000001
 43
0.0000000001
 40
1.388152414289232
 40
1.388152414289232
 40
1.388152414289232
 40
1.388152414289232
 40
1.692806944975157
 40
1.692806944975157
 40
2.001005642474764
 40
2.001005642474764
 40
2.317656804598923
 40
2.317656804598923
 40
2.643137041843812
 40
2.643137041843812
 40
2.974400133472911
 40
2.974400133472911
 40
3.307456495402585
 40
3.307456495402585
 40
3.638322138704363
 40
3.638322138704363
 40
3.962871491840286
 40
3.962871491840286
 40
4.278138395556375
 40
4.278138395556375
 40
4.529745067879025
 40
4.529745067879025
 40
4.529745067879025
 40
4.529745067879025
 10
2452.425823253859
 20
2553.745740973408
 30
0.0
 10
2451.031885206575
 20
2553.745740973408
 30
0.0
 10
2449.638651555043
 20
2553.984164655433
 30
0.0
 10
2446.987426472925
 20
2554.909417601046
 30
0.0
 10
2445.731995367749
 20
2555.60046723663
 30
0.0
 10
2443.46474416874
 20
2557.369899080045
 30
0.0
 10
2442.46045425584
 20
2558.457507585377
 30
0.0
 10
2440.798954549119
 20
2560.927583446731
 30
0.0
 10
2440.151851840929
 20
2562.317076922772
 30
0.0
 10
2439.285980816773
 20
2565.258192027142
 30
0.0
 10
2439.074855094287
 20
2566.812175968381
 30
0.0
 10
2439.118148427434
 20
2569.921672044265
 30
0.0
 10
2439.375118618083
 20
2571.477104205904
 30
0.0
 10
2440.338883235762
 20
2574.421057624235
 30
0.0
 10
2441.042947078744
 20
2575.810511114929
 30
0.0
 10
2442.829092350571
 20
2578.265095167577
 30
0.0
 10
2443.904115586048
 20
2579.335465327675
 30
0.0
 10
2446.307183460961
 20
2581.033243610255
 30
0.0
 10
2447.62709374541
 20
2581.671433286645
 30
0.0
 10
2450.123660611702
 20
2582.383693738864
 30
0.0
 10
2451.274604157556
 20
2582.545740973408
 30
0.0
 10
2452.42582325386
 20
2582.545740973408
 30
0.0
  0
CIRCLE
  5
287
330
6C
100
AcDbEntity
  8
Widoczne (ISO)
100
AcDbCircle
 10
2524.973339839266
 20
2681.905740973408
 30
0.0
 40
7.200000000006453
  0
ARC
  5
288
330
6C
100
AcDbEntity
  8
Widoczne (ISO)
100
AcDbCircle
 10
2784.138528120866
 20
2765.374931736107
 30
0.0
 40
7.739999999999999
100
AcDbArc
 50
320.2791922043445
 51
143.5493971183193
  0
LINE
  5
289
330
6C
100
AcDbEntity
  8
Widoczne (ISO)
100
AcDbLine
 10
2790.091884775907
 20
2760.428706454352
 30
0.0
 11
2780.042734927409
 21
2748.333387353391
 31
0.0
  0
ARC
  5
28A
330
6C
100
AcDbEntity
  8
Widoczne (ISO)
100
AcDbCircle
 10
2784.196239570463
 20
2744.882532505656
 30
0.0
 40
5.399999999999977
100
AcDbArc
 50
140.2791922043438
 51
192.3118899101169
  0
ARC
  5
28B
330
6C
100
AcDbEntity
  8
Widoczne (ISO)
100
AcDbCircle
 10
2795.339746566488
 20
2403.093895047632
 30
0.0
 40
341.0326689223063
100
AcDbArc
 50
92.75962195120124
 51
95.19613099485622
  0
LINE
  5
28C
330
6C
100
AcDbEntity
  8
Widoczne (ISO)
100
AcDbLine
 10
2764.454010014731
 20
2742.72509583744
 30
0.0
 11
2764.618477674776
 21
2751.974939664642
 31
0.0
  0
LINE
  5
28D
330
6C
100
AcDbEntity
  8
Widoczne (ISO)
100
AcDbLine
 10
2764.618477674776
 20
2751.974939664642
 30
0.0
 11
2777.912709090848
 21
2769.973494272975
 31
0.0
  0
LINE
  5
28E
330
6C
100
AcDbEntity
  8
Widoczne (ISO)
100
AcDbLine
 10
2822.900330996901
 20
2747.571354104793
 30
0.0
 11
2813.287521029069
 21
2760.016274408032
 31
0.0
  0
ARC
  5
28F
330
6C
100
AcDbEntity
  8
Widoczne (ISO)
100
AcDbCircle
 10
2819.412952569182
 20
2764.747731736107
 30
0.0
 40
7.740000000000007
100
AcDbArc
 50
34.41331228641962
 51
217.6835172003945
  0
LINE
  5
290
330
6C
100
AcDbEntity
  8
Widoczne (ISO)
100
AcDbLine
 10
2825.79831487265
 20
2769.122060056369
 30
0.0
 11
2838.471026039109
 21
2750.623253784736
 31
0.0
  0
LINE
  5
291
330
6C
100
AcDbEntity
  8
Widoczne (ISO)
100
AcDbLine
 10
2838.471026039109
 20
2750.623253784736
 30
0.0
 11
2838.306737962108
 21
2741.383509907285
 31
0.0
  0
ARC
  5
292
330
6C
100
AcDbEntity
  8
Widoczne (ISO)
100
AcDbCircle
 10
2795.339746566475
 20
2403.093895047627
 30
0.0
 40
341.0073692334058
100
AcDbArc
 50
82.76148117547919
 51
85.20381317902666
  0
ARC
  5
293
330
6C
100
AcDbEntity
  8
Widoczne (ISO)
100
AcDbCircle
 10
2818.626774108452
 20
2744.270337364275
 30
0.0
 40
5.399999999999992
100
AcDbArc
 50
345.3784969074721
 51
37.6835172003951
  0
LINE
  5
294
330
6C
100
AcDbEntity
  8
Widoczne (ISO)
100
AcDbLine
 10
2761.040096383431
 20
2752.168482123983
 30
0.0
 11
2760.786140850783
 21
2737.885740973408
 31
0.0
  0
ARC
  5
295
330
6C
100
AcDbEntity
  8
Widoczne (ISO)
100
AcDbCircle
 10
2795.339746566483
 20
2403.093895047697
 30
0.0
 40
336.5702478923243
100
AcDbArc
 50
82.07012041464304
 51
95.89258899009719
  0
LINE
  5
296
330
6C
100
AcDbEntity
  8
Widoczne (ISO)
100
AcDbLine
 10
2841.773339839265
 20
2736.445740973408
 30
0.0
 11
2842.027295371913
 21
2750.728482123983
 31
0.0
  0
ARC
  5
297
330
6C
100
AcDbEntity
  8
Widoczne (ISO)
100
AcDbCircle
 10
2841.667352265298
 20
2750.734882123982
 30
0.0
 40
0.3600000000001283
100
AcDbArc
 50
358.981354702364
 51
34.4133122864126
  0
LINE
  5
298
330
6C
100
AcDbEntity
  8
Widoczne (ISO)
100
AcDbLine
 10
2841.964345860808
 20
2750.938339255157
 30
0.0
 11
2828.322760434486
 21
2770.851445671357
 31
0.0
  0
ARC
  5
299
330
6C
100
AcDbEntity
  8
Widoczne (ISO)
100
AcDbCircle
 10
2819.412952569182
 20
2764.747731736107
 30
0.0
 40
10.8
100
AcDbArc
 50
34.41331228642116
 51
217.6835172003959
  0
LINE
  5
29A
330
6C
100
AcDbEntity
  8
Widoczne (ISO)
100
AcDbLine
 10
2810.865838792281
 20
2758.145698255072
 30
0.0
 11
2818.79017183434
 21
2747.88671118524
 31
0.0
  0
ARC
  5
29B
330
6C
100
AcDbEntity
  8
Widoczne (ISO)
100
AcDbCircle
 10
2816.653393390114
 20
2746.236202814981
 30
0.0
 40
2.700000000000001
100
AcDbArc
 50
266.4522886212631
 51
37.68351720039246
  0
ARC
  5
29C
330
6C
100
AcDbEntity
  8
Widoczne (ISO)
100
AcDbCircle
 10
2795.323927885558
 20
2402.204234867216
 30
0.0
 40
341.9925312053081
100
AcDbArc
 50
86.45228862126506
 51
91.51042078347529
  0
ARC
  5
29D
330
6C
100
AcDbEntity
  8
Widoczne (ISO)
100
AcDbCircle
 10
2786.238259309136
 20
2746.777001776096
 30
0.0
 40
2.7
100
AcDbArc
 50
140.2791922043412
 51
271.5104207834738
  0
LINE
  5
29E
330
6C
100
AcDbEntity
  8
Widoczne (ISO)
100
AcDbLine
 10
2784.16150698761
 20
2748.502429199965
 30
0.0
 11
2792.445537406971
 21
2758.473222040636
 31
0.0
  0
ARC
  5
29F
330
6C
100
AcDbEntity
  8
Widoczne (ISO)
100
AcDbCircle
 10
2784.138528120866
 20
2765.374931736107
 30
0.0
 40
10.8
100
AcDbArc
 50
320.2791922043451
 51
143.5493971183191
  0
LINE
  5
2A0
330
6C
100
AcDbEntity
  8
Widoczne (ISO)
100
AcDbLine
 10
2775.451338776656
 20
2771.791530624759
 30
0.0
 11
2761.110466511906
 21
2752.375968753604
 31
0.0
  0
ARC
  5
2A1
330
6C
100
AcDbEntity
  8
Widoczne (ISO)
100
AcDbCircle
 10
2761.400039490047
 20
2752.162082123982
 30
0.0
 40
0.3599999999999529
100
AcDbArc
 50
143.5493971183385
 51
178.9813547024144
  0
ARC
  5
2A2
330
6C
100
AcDbEntity
  8
Widoczne (ISO)
100
AcDbCircle
 10
1038.208151557664
 20
2765.374931736115
 30
0.0
 40
7.740000000000017
100
AcDbArc
 50
36.45060288167953
 51
219.7208077956556
  0
LINE
  5
2A3
330
6C
100
AcDbEntity
  8
Widoczne (ISO)
100
AcDbLine
 10
1044.433970587681
 20
2769.973494272982
 30
0.0
 11
1057.728202003754
 21
2751.974939664649
 31
0.0
  0
LINE
  5
2A4
330
6C
100
AcDbEntity
  8
Widoczne (ISO)
100
AcDbLine
 10
1057.728202003754
 20
2751.974939664649
 30
0.0
 11
1057.892669663798
 21
2742.725095837448
 31
0.0
  0
ARC
  5
2A5
330
6C
100
AcDbEntity
  8
Widoczne (ISO)
100
AcDbCircle
 10
1027.006933112045
 20
2403.093895047683
 30
0.0
 40
341.0326689222633
100
AcDbArc
 50
84.80386900514382
 51
87.24037804879896
  0
ARC
  5
2A6
330
6C
100
AcDbEntity
  8
Widoczne (ISO)
100
AcDbCircle
 10
1038.150440108067
 20
2744.882532505663
 30
0.0
 40
5.399999999999995
100
AcDbArc
 50
347.6881100898794
 51
39.72080779565359
  0
LINE
  5
2A7
330
6C
100
AcDbEntity
  8
Widoczne (ISO)
100
AcDbLine
 10
1042.30394475112
 20
2748.333387353399
 30
0.0
 11
1032.254794902622
 21
2760.42870645436
 31
0.0
  0
LINE
  5
2A8
330
6C
100
AcDbEntity
  8
Widoczne (ISO)
100
AcDbLine
 10
1009.05915864946
 20
2760.01627440804
 30
0.0
 11
999.4463486816275
 21
2747.571354104801
 31
0.0
  0
ARC
  5
2A9
330
6C
100
AcDbEntity
  8
Widoczne (ISO)
100
AcDbCircle
 10
1003.719905570078
 20
2744.270337364283
 30
0.0
 40
5.400000000000002
100
AcDbArc
 50
142.3164827996054
 51
194.6215030925282
  0
ARC
  5
2AA
330
6C
100
AcDbEntity
  8
Widoczne (ISO)
100
AcDbCircle
 10
1027.006933112055
 20
2403.093895047636
 30
0.0
 40
341.0073692334054
100
AcDbArc
 50
94.79618682097333
 51
97.23851882452111
  0
LINE
  5
2AB
330
6C
100
AcDbEntity
  8
Widoczne (ISO)
100
AcDbLine
 10
984.0399417164215
 20
2741.383509907294
 30
0.0
 11
983.8756536394203
 21
2750.623253784744
 31
0.0
  0
LINE
  5
2AC
330
6C
100
AcDbEntity
  8
Widoczne (ISO)
100
AcDbLine
 10
983.8756536394203
 20
2750.623253784744
 30
0.0
 11
996.5483648058791
 21
2769.122060056377
 31
0.0
  0
ARC
  5
2AD
330
6C
100
AcDbEntity
  8
Widoczne (ISO)
100
AcDbCircle
 10
1002.933727109347
 20
2764.747731736115
 30
0.0
 40
7.740000000000019
100
AcDbArc
 50
322.3164827996043
 51
145.586687713579
  0
ARC
  5
2AE
330
6C
100
AcDbEntity
  8
Widoczne (ISO)
100
AcDbCircle
 10
1060.946640188483
 20
2752.16208212399
 30
0.0
 40
0.3599999999999527
100
AcDbArc
 50
1.018645297636392
 51
36.45060288171753
  0
LINE
  5
2AF
330
6C
100
AcDbEntity
  8
Widoczne (ISO)
100
AcDbLine
 10
1061.236213166623
 20
2752.375968753612
 30
0.0
 11
1046.895340901873
 21
2771.791530624767
 31
0.0
  0
ARC
  5
2B0
330
6C
100
AcDbEntity
  8
Widoczne (ISO)
100
AcDbCircle
 10
1038.208151557664
 20
2765.374931736115
 30
0.0
 40
10.80000000000002
100
AcDbArc
 50
36.45060288167986
 51
219.7208077956544
  0
LINE
  5
2B1
330
6C
100
AcDbEntity
  8
Widoczne (ISO)
100
AcDbLine
 10
1029.901142271559
 20
2758.473222040644
 30
0.0
 11
1038.185172690919
 21
2748.502429199972
 31
0.0
  0
ARC
  5
2B2
330
6C
100
AcDbEntity
  8
Widoczne (ISO)
100
AcDbCircle
 10
1036.108420369393
 20
2746.777001776104
 30
0.0
 40
2.700000000000007
100
AcDbArc
 50
268.4895792165231
 51
39.72080779565359
  0
ARC
  5
2B3
330
6C
100
AcDbEntity
  8
Widoczne (ISO)
100
AcDbCircle
 10
1027.022751792972
 20
2402.204234867223
 30
0.0
 40
341.9925312053088
100
AcDbArc
 50
88.48957921652472
 51
93.54771137873511
  0
ARC
  5
2B4
330
6C
100
AcDbEntity
  8
Widoczne (ISO)
100
AcDbCircle
 10
1005.693286288415
 20
2746.236202814989
 30
0.0
 40
2.700000000000001
100
AcDbArc
 50
142.316482799598
 51
273.5477113787335
  0
LINE
  5
2B5
330
6C
100
AcDbEntity
  8
Widoczne (ISO)
100
AcDbLine
 10
1003.55650784419
 20
2747.886711185247
 30
0.0
 11
1011.480840886249
 21
2758.14569825508
 31
0.0
  0
ARC
  5
2B6
330
6C
100
AcDbEntity
  8
Widoczne (ISO)
100
AcDbCircle
 10
1002.933727109347
 20
2764.747731736115
 30
0.0
 40
10.80000000000002
100
AcDbArc
 50
322.3164827996046
 51
145.5866877135788
  0
LINE
  5
2B7
330
6C
100
AcDbEntity
  8
Widoczne (ISO)
100
AcDbLine
 10
994.0239192440426
 20
2770.851445671365
 30
0.0
 11
980.3823338177215
 21
2750.938339255165
 31
0.0
  0
ARC
  5
2B8
330
6C
100
AcDbEntity
  8
Widoczne (ISO)
100
AcDbCircle
 10
980.6793274132319
 20
2750.73488212399
 30
0.0
 40
0.3600000000001271
100
AcDbArc
 50
145.5866877135874
 51
181.0186452976364
  0
LINE
  5
2B9
330
6C
100
AcDbEntity
  8
Widoczne (ISO)
100
AcDbLine
 10
980.3193843066161
 20
2750.72848212399
 30
0.0
 11
980.5733398392645
 21
2736.445740973416
 31
0.0
  0
ARC
  5
2BA
330
6C
100
AcDbEntity
  8
Widoczne (ISO)
100
AcDbCircle
 10
1027.006933112047
 20
2403.093895047713
 30
0.0
 40
336.5702478923167
100
AcDbArc
 50
84.10741100990296
 51
97.92987958535746
  0
LINE
  5
2BB
330
6C
100
AcDbEntity
  8
Widoczne (ISO)
100
AcDbLine
 10
1061.560538827746
 20
2737.885740973416
 30
0.0
 11
1061.306583295098
 21
2752.16848212399
 31
0.0
  0
LINE
  5
2BC
330
6C
100
AcDbEntity
  8
Widoczne (ISO)
100
AcDbLine
 10
976.6133398392693
 20
2736.44574097341
 30
0.0
 11
978.9173398377755
 21
2736.44574097341
 31
0.0
  0
LINE
  5
2BD
330
6C
100
AcDbEntity
  8
Widoczne (ISO)
100
AcDbLine
 10
2843.429339839263
 20
2736.445740973407
 30
0.0
 11
2845.733339839267
 21
2736.445740973407
 31
0.0
  0
LINE
  5
2BE
330
6C
100
AcDbEntity
  8
Widoczne (ISO)
100
AcDbLine
 10
976.6133398392693
 20
2736.44574097341
 30
0.0
 11
976.6133398392693
 21
2735.652862794021
 31
0.0
  0
LINE
  5
2BF
330
6C
100
AcDbEntity
  8
Widoczne (ISO)
100
AcDbLine
 10
2845.733339839267
 20
2735.652862793997
 30
0.0
 11
2845.733339839267
 21
2736.445740973368
 31
0.0
  0
LINE
  5
2C0
330
6C
100
AcDbEntity
  8
Widoczne (ISO)
100
AcDbLine
 10
978.0533398392668
 20
2733.565740973412
 30
0.0
 11
978.0533398392668
 21
2631.685740973412
 31
0.0
  0
LINE
  5
2C1
330
6C
100
AcDbEntity
  8
Widoczne (ISO)
100
AcDbLine
 10
978.0533398392668
 20
2631.685740973412
 30
0.0
 11
2845.733339839265
 21
2631.685740973407
 31
0.0
  0
LINE
  5
2C2
330
6C
100
AcDbEntity
  8
Widoczne (ISO)
100
AcDbLine
 10
2845.733339839265
 20
2631.685740973408
 30
0.0
 11
2845.733339839265
 21
2733.565740973407
 31
0.0
  0
LINE
  5
2C3
330
6C
100
AcDbEntity
  8
Widoczne (ISO)
100
AcDbLine
 10
2845.733339839265
 20
2733.565740973407
 30
0.0
 11
978.0533398392668
 21
2733.565740973412
 31
0.0
  0
LINE
  5
2C4
330
6C
100
AcDbEntity
  8
Widoczne (ISO)
100
AcDbLine
 10
948.1733398392638
 20
2777.101530973413
 30
0.0
 11
937.3733398392637
 21
2777.101530973413
 31
0.0
  0
LINE
  5
2C5
330
6C
100
AcDbEntity
  8
Widoczne (ISO)
100
AcDbLine
 10
938.4775498392636
 20
2778.205740973413
 30
0.0
 11
947.0691298392639
 21
2778.205740973413
 31
0.0
  0
LINE
  5
2C6
330
6C
100
AcDbEntity
  8
Widoczne (ISO)
100
AcDbLine
 10
947.0691298392639
 20
2778.205740973413
 30
0.0
 11
948.1733398392636
 21
2777.101530973413
 31
0.0
  0
LINE
  5
2C7
330
6C
100
AcDbEntity
  8
Widoczne (ISO)
100
AcDbLine
 10
938.4775498392636
 20
2778.205740973413
 30
0.0
 11
937.3733398392639
 21
2777.101530973413
 31
0.0
  0
LINE
  5
2C8
330
6C
100
AcDbEntity
  8
Widoczne (ISO)
100
AcDbLine
 10
950.6933398392638
 20
2749.405740973413
 30
0.0
 11
934.8533398392639
 21
2749.405740973413
 31
0.0
  0
ARC
  5
2C9
330
6C
100
AcDbEntity
  8
Widoczne (ISO)
100
AcDbCircle
 10
950.6933398392638
 20
2750.485740973413
 30
0.0
 40
1.08
100
AcDbArc
 50
270.0
 51
0.0
  0
ARC
  5
2CA
330
6C
100
AcDbEntity
  8
Widoczne (ISO)
100
AcDbCircle
 10
934.8533398392639
 20
2750.485740973413
 30
0.0
 40
1.08
100
AcDbArc
 50
180.0
 51
270.0
  0
LINE
  5
2CB
330
6C
100
AcDbEntity
  8
Widoczne (ISO)
100
AcDbLine
 10
937.3733398392639
 20
2776.585740973413
 30
0.0
 11
937.3733398392639
 21
2777.101530973413
 31
0.0
  0
LINE
  5
2CC
330
6C
100
AcDbEntity
  8
Widoczne (ISO)
100
AcDbLine
 10
948.1733398392636
 20
2776.585740973413
 30
0.0
 11
948.1733398392636
 21
2777.101530973413
 31
0.0
  0
LINE
  5
2CD
330
6C
100
AcDbEntity
  8
Widoczne (ISO)
100
AcDbLine
 10
933.7733398392638
 20
2750.485740973413
 30
0.0
 11
933.7733398392638
 21
2760.205740973413
 31
0.0
  0
LINE
  5
2CE
330
6C
100
AcDbEntity
  8
Widoczne (ISO)
100
AcDbLine
 10
951.7733398392637
 20
2750.485740973413
 30
0.0
 11
951.7733398392637
 21
2760.205740973413
 31
0.0
  0
LINE
  5
2CF
330
6C
100
AcDbEntity
  8
Widoczne (ISO)
100
AcDbLine
 10
889.4933398392636
 20
2749.405740973413
 30
0.0
 11
873.6533398392637
 21
2749.405740973413
 31
0.0
  0
ARC
  5
2D0
330
6C
100
AcDbEntity
  8
Widoczne (ISO)
100
AcDbCircle
 10
889.4933398392636
 20
2750.485740973413
 30
0.0
 40
1.08
100
AcDbArc
 50
270.0
 51
0.0
  0
ARC
  5
2D1
330
6C
100
AcDbEntity
  8
Widoczne (ISO)
100
AcDbCircle
 10
873.6533398392637
 20
2750.485740973413
 30
0.0
 40
1.08
100
AcDbArc
 50
180.0
 51
270.0
  0
LINE
  5
2D2
330
6C
100
AcDbEntity
  8
Widoczne (ISO)
100
AcDbLine
 10
872.5733398392636
 20
2750.485740973413
 30
0.0
 11
872.5733398392636
 21
2760.205740973413
 31
0.0
  0
LINE
  5
2D3
330
6C
100
AcDbEntity
  8
Widoczne (ISO)
100
AcDbLine
 10
890.5733398392637
 20
2750.485740973413
 30
0.0
 11
890.5733398392637
 21
2760.205740973413
 31
0.0
  0
LINE
  5
2D4
330
6C
100
AcDbEntity
  8
Widoczne (ISO)
100
AcDbLine
 10
2778.773339839273
 20
2818.885740973415
 30
0.0
 11
2780.573339839274
 21
2818.885740973415
 31
0.0
  0
LINE
  5
2D5
330
6C
100
AcDbEntity
  8
Widoczne (ISO)
100
AcDbLine
 10
2780.573339839274
 20
2818.885740973415
 30
0.0
 11
2780.573339839274
 21
3043.885740973415
 31
0.0
  0
LINE
  5
2D6
330
6C
100
AcDbEntity
  8
Widoczne (ISO)
100
AcDbLine
 10
2780.573339839274
 20
3043.885740973415
 30
0.0
 11
2778.773339839273
 21
3043.885740973415
 31
0.0
  0
LINE
  5
2D7
330
6C
100
AcDbEntity
  8
Widoczne (ISO)
100
AcDbLine
 10
2778.773339839273
 20
3043.885740973415
 30
0.0
 11
2778.773339839273
 21
2818.885740973415
 31
0.0
  0
LINE
  5
2D8
330
6C
100
AcDbEntity
  8
Widoczne (ISO)
100
AcDbLine
 10
1041.773339839264
 20
2818.885740973412
 30
0.0
 11
1043.573339839264
 21
2818.885740973412
 31
0.0
  0
LINE
  5
2D9
330
6C
100
AcDbEntity
  8
Widoczne (ISO)
100
AcDbLine
 10
1043.573339839264
 20
2818.885740973412
 30
0.0
 11
1043.573339839264
 21
3043.885740973412
 31
0.0
  0
LINE
  5
2DA
330
6C
100
AcDbEntity
  8
Widoczne (ISO)
100
AcDbLine
 10
1043.573339839264
 20
3043.885740973412
 30
0.0
 11
1041.773339839264
 21
3043.885740973412
 31
0.0
  0
LINE
  5
2DB
330
6C
100
AcDbEntity
  8
Widoczne (ISO)
100
AcDbLine
 10
1041.773339839264
 20
3043.885740973412
 30
0.0
 11
1041.773339839264
 21
2818.885740973412
 31
0.0
  0
LINE
  5
2DC
330
6C
100
AcDbEntity
  8
Widoczne (ISO)
100
AcDbLine
 10
2946.893339839251
 20
3030.205740973415
 30
0.0
 11
2946.893339839251
 21
3031.203402238569
 31
0.0
  0
LINE
  5
2DD
330
6C
100
AcDbEntity
  8
Widoczne (ISO)
100
AcDbLine
 10
2920.265799720947
 20
2840.305740973415
 30
0.0
 11
2920.253339839251
 21
2840.305740973415
 31
0.0
  0
LINE
  5
2DE
330
6C
100
AcDbEntity
  8
Widoczne (ISO)
100
AcDbLine
 10
2920.253339839249
 20
2840.305740973415
 30
0.0
 11
2920.253339839249
 21
2839.30807970825
 31
0.0
  0
LINE
  5
2DF
330
6C
100
AcDbEntity
  8
Widoczne (ISO)
100
AcDbLine
 10
902.0933398392635
 20
3030.205740973413
 30
0.0
 11
902.0933398392635
 21
3031.203402238572
 31
0.0
  0
LINE
  5
2E0
330
6C
100
AcDbEntity
  8
Widoczne (ISO)
100
AcDbLine
 10
875.4657997209621
 20
2840.305740973412
 30
0.0
 11
875.4533398392636
 21
2840.305740973412
 31
0.0
  0
LINE
  5
2E1
330
6C
100
AcDbEntity
  8
Widoczne (ISO)
100
AcDbLine
 10
875.4533398392638
 20
2840.305740973412
 30
0.0
 11
875.4533398392638
 21
2839.308079708252
 31
0.0
  0
ELLIPSE
  5
2E2
330
6C
100
AcDbEntity
  8
Widoczne (ISO)
100
AcDbEllipse
 10
888.7733398392562
 20
2841.303402238572
 30
0.0
 11
-0.0000000000000207
 21
23.07091675681743
 31
0.0
210
0.0
220
0.0
230
1.0
 40
0.5773502691896264
 41
1.614053058711342
 42
1.739673634119671
  0
ELLIPSE
  5
2E3
330
6C
100
AcDbEntity
  8
Widoczne (ISO)
100
AcDbEllipse
 10
888.7733398392562
 20
2839.308079708252
 30
0.0
 11
-0.0000000000000207
 21
23.07091675681742
 31
0.0
210
0.0
220
0.0
230
1.0
 40
0.5773502691896267
 41
1.527539594878437
 42
1.65247636704902
  0
LINE
  5
2E4
330
6C
100
AcDbEntity
  8
Widoczne (ISO)
100
AcDbLine
 10
875.6428290201412
 20
2837.425740973412
 30
0.0
 11
875.4977481903276
 21
2837.425740973412
 31
0.0
  0
LINE
  5
2E5
330
6C
100
AcDbEntity
  8
Widoczne (ISO)
100
AcDbLine
 10
902.0933398392561
 20
2840.305740973412
 30
0.0
 11
875.4657997209623
 21
2840.305740973412
 31
0.0
  0
LINE
  5
2E6
330
6C
100
AcDbEntity
  8
Widoczne (ISO)
100
AcDbLine
 10
902.0933398392561
 20
2837.425740973412
 30
0.0
 11
875.6428290201412
 21
2837.425740973412
 31
0.0
  0
LINE
  5
2E7
330
6C
100
AcDbEntity
  8
Widoczne (ISO)
100
AcDbLine
 10
875.4977481903276
 20
2837.425740973412
 30
0.0
 11
875.4533398392561
 21
2837.425740973412
 31
0.0
  0
LINE
  5
2E8
330
6C
100
AcDbEntity
  8
Widoczne (ISO)
100
AcDbLine
 10
902.0933398392561
 20
2840.305740973412
 30
0.0
 11
902.0933398392561
 21
2837.425740973412
 31
0.0
  0
LINE
  5
2E9
330
6C
100
AcDbEntity
  8
Widoczne (ISO)
100
AcDbLine
 10
875.4533398392561
 20
2839.308079708252
 30
0.0
 11
875.4533398392561
 21
2837.425740973412
 31
0.0
  0
ELLIPSE
  5
2EA
330
6C
100
AcDbEntity
  8
Widoczne (ISO)
100
AcDbEllipse
 10
888.7733398392557
 20
3029.208079708253
 30
0.0
 11
0.0000000000000773
 21
-23.07091675681742
 31
0.0
210
0.0
220
0.0
230
1.0
 40
0.5773502691896266
 41
1.614053058711354
 42
1.73967363411967
  0
ELLIPSE
  5
2EB
330
6C
100
AcDbEntity
  8
Widoczne (ISO)
100
AcDbEllipse
 10
888.7733398392557
 20
3031.203402238572
 30
0.0
 11
0.0000000000000773
 21
-23.07091675681741
 31
0.0
210
0.0
220
0.0
230
1.0
 40
0.5773502691896269
 41
1.527539594878433
 42
1.652476367049033
  0
LINE
  5
2EC
330
6C
100
AcDbEntity
  8
Widoczne (ISO)
100
AcDbLine
 10
901.9038506583704
 20
3033.085740973413
 30
0.0
 11
902.0489314881842
 21
3033.085740973413
 31
0.0
  0
LINE
  5
2ED
330
6C
100
AcDbEntity
  8
Widoczne (ISO)
100
AcDbLine
 10
875.4533398392556
 20
3030.205740973413
 30
0.0
 11
902.0808799575496
 21
3030.205740973413
 31
0.0
  0
LINE
  5
2EE
330
6C
100
AcDbEntity
  8
Widoczne (ISO)
100
AcDbLine
 10
875.4533398392556
 20
3033.085740973412
 30
0.0
 11
901.9038506583704
 21
3033.085740973412
 31
0.0
  0
LINE
  5
2EF
330
6C
100
AcDbEntity
  8
Widoczne (ISO)
100
AcDbLine
 10
902.0489314881842
 20
3033.085740973412
 30
0.0
 11
902.0933398392557
 21
3033.085740973412
 31
0.0
  0
LINE
  5
2F0
330
6C
100
AcDbEntity
  8
Widoczne (ISO)
100
AcDbLine
 10
875.4533398392556
 20
3030.205740973413
 30
0.0
 11
875.4533398392556
 21
3033.085740973412
 31
0.0
  0
LINE
  5
2F1
330
6C
100
AcDbEntity
  8
Widoczne (ISO)
100
AcDbLine
 10
902.0933398392557
 20
3031.203402238572
 30
0.0
 11
902.0933398392557
 21
3033.085740973413
 31
0.0
  0
ELLIPSE
  5
2F2
330
6C
100
AcDbEntity
  8
Widoczne (ISO)
100
AcDbEllipse
 10
2933.573339839232
 20
2841.303402238568
 30
0.0
 11
0.0000000000000208
 21
23.07091675681746
 31
0.0
210
0.0
220
0.0
230
1.0
 40
0.5773502691896257
 41
1.614053058711356
 42
1.739673634119682
  0
ELLIPSE
  5
2F3
330
6C
100
AcDbEntity
  8
Widoczne (ISO)
100
AcDbEllipse
 10
2933.573339839232
 20
2839.308079708248
 30
0.0
 11
0.0000000000000208
 21
23.07091675681745
 31
0.0
210
0.0
220
0.0
230
1.0
 40
0.577350269189626
 41
1.527539594878451
 42
1.652476367049033
  0
LINE
  5
2F4
330
6C
100
AcDbEntity
  8
Widoczne (ISO)
100
AcDbLine
 10
2920.442829020117
 20
2837.425740973408
 30
0.0
 11
2920.297748190304
 21
2837.425740973408
 31
0.0
  0
LINE
  5
2F5
330
6C
100
AcDbEntity
  8
Widoczne (ISO)
100
AcDbLine
 10
2946.893339839233
 20
2840.305740973408
 30
0.0
 11
2920.265799720939
 21
2840.305740973408
 31
0.0
  0
LINE
  5
2F6
330
6C
100
AcDbEntity
  8
Widoczne (ISO)
100
AcDbLine
 10
2946.893339839233
 20
2837.425740973408
 30
0.0
 11
2920.442829020117
 21
2837.425740973408
 31
0.0
  0
LINE
  5
2F7
330
6C
100
AcDbEntity
  8
Widoczne (ISO)
100
AcDbLine
 10
2920.297748190304
 20
2837.425740973408
 30
0.0
 11
2920.253339839232
 21
2837.425740973408
 31
0.0
  0
LINE
  5
2F8
330
6C
100
AcDbEntity
  8
Widoczne (ISO)
100
AcDbLine
 10
2946.893339839233
 20
2840.305740973408
 30
0.0
 11
2946.893339839233
 21
2837.425740973408
 31
0.0
  0
LINE
  5
2F9
330
6C
100
AcDbEntity
  8
Widoczne (ISO)
100
AcDbLine
 10
2920.253339839232
 20
2839.308079708249
 30
0.0
 11
2920.253339839232
 21
2837.425740973408
 31
0.0
  0
ELLIPSE
  5
2FA
330
6C
100
AcDbEntity
  8
Widoczne (ISO)
100
AcDbEllipse
 10
2933.573339839233
 20
3029.208079708248
 30
0.0
 11
-0.0000000000000777
 21
-23.0709167568174
 31
0.0
210
0.0
220
0.0
230
1.0
 40
0.5773502691896272
 41
1.614053058711358
 42
1.73967363411967
  0
ELLIPSE
  5
2FB
330
6C
100
AcDbEntity
  8
Widoczne (ISO)
100
AcDbEllipse
 10
2933.573339839233
 20
3031.203402238568
 30
0.0
 11
-0.0000000000000777
 21
-23.07091675681738
 31
0.0
210
0.0
220
0.0
230
1.0
 40
0.5773502691896275
 41
1.527539594878438
 42
1.652476367049035
  0
LINE
  5
2FC
330
6C
100
AcDbEntity
  8
Widoczne (ISO)
100
AcDbLine
 10
2946.703850658348
 20
3033.085740973408
 30
0.0
 11
2946.848931488162
 21
3033.085740973408
 31
0.0
  0
LINE
  5
2FD
330
6C
100
AcDbEntity
  8
Widoczne (ISO)
100
AcDbLine
 10
2920.253339839233
 20
3030.205740973408
 30
0.0
 11
2946.880879957527
 21
3030.205740973408
 31
0.0
  0
LINE
  5
2FE
330
6C
100
AcDbEntity
  8
Widoczne (ISO)
100
AcDbLine
 10
2920.253339839233
 20
3033.085740973408
 30
0.0
 11
2946.703850658348
 21
3033.085740973408
 31
0.0
  0
LINE
  5
2FF
330
6C
100
AcDbEntity
  8
Widoczne (ISO)
100
AcDbLine
 10
2946.848931488162
 20
3033.085740973408
 30
0.0
 11
2946.893339839233
 21
3033.085740973408
 31
0.0
  0
LINE
  5
300
330
6C
100
AcDbEntity
  8
Widoczne (ISO)
100
AcDbLine
 10
2920.253339839233
 20
3030.205740973408
 30
0.0
 11
2920.253339839233
 21
3033.085740973408
 31
0.0
  0
LINE
  5
301
330
6C
100
AcDbEntity
  8
Widoczne (ISO)
100
AcDbLine
 10
2946.893339839233
 20
3031.203402238568
 30
0.0
 11
2946.893339839233
 21
3033.085740973408
 31
0.0
  0
LINE
  5
302
330
6C
100
AcDbEntity
  8
Widoczne (ISO)
100
AcDbLine
 10
895.0733398392561
 20
2822.125740973412
 30
0.0
 11
895.9733398392561
 21
2823.025740973412
 31
0.0
  0
LINE
  5
303
330
6C
100
AcDbEntity
  8
Widoczne (ISO)
100
AcDbLine
 10
895.9733398392561
 20
2823.025740973412
 30
0.0
 11
895.9733398392561
 21
2825.725740973412
 31
0.0
  0
LINE
  5
304
330
6C
100
AcDbEntity
  8
Widoczne (ISO)
100
AcDbLine
 10
895.9733398392561
 20
2840.305740973413
 30
0.0
 11
895.9733398392556
 21
3030.205740973413
 31
0.0
  0
LINE
  5
305
330
6C
100
AcDbEntity
  8
Widoczne (ISO)
100
AcDbLine
 10
895.9733398392558
 20
3044.785740973413
 30
0.0
 11
895.9733398392556
 21
3047.485740973412
 31
0.0
  0
LINE
  5
306
330
6C
100
AcDbEntity
  8
Widoczne (ISO)
100
AcDbLine
 10
895.9733398392556
 20
3047.485740973412
 30
0.0
 11
895.0733398392557
 21
3048.385740973412
 31
0.0
  0
LINE
  5
307
330
6C
100
AcDbEntity
  8
Widoczne (ISO)
100
AcDbLine
 10
895.0733398392557
 20
3048.385740973412
 30
0.0
 11
882.4733398392556
 21
3048.385740973412
 31
0.0
  0
LINE
  5
308
330
6C
100
AcDbEntity
  8
Widoczne (ISO)
100
AcDbLine
 10
882.4733398392556
 20
3048.385740973412
 30
0.0
 11
881.5733398392557
 21
3047.485740973412
 31
0.0
  0
LINE
  5
309
330
6C
100
AcDbEntity
  8
Widoczne (ISO)
100
AcDbLine
 10
881.5733398392557
 20
3047.485740973412
 30
0.0
 11
881.5733398392557
 21
3044.785740973413
 31
0.0
  0
LINE
  5
30A
330
6C
100
AcDbEntity
  8
Widoczne (ISO)
100
AcDbLine
 10
881.5733398392557
 20
3030.205740973413
 30
0.0
 11
881.5733398392561
 21
2840.305740973413
 31
0.0
  0
LINE
  5
30B
330
6C
100
AcDbEntity
  8
Widoczne (ISO)
100
AcDbLine
 10
881.5733398392561
 20
2825.725740973412
 30
0.0
 11
881.5733398392561
 21
2823.025740973412
 31
0.0
  0
LINE
  5
30C
330
6C
100
AcDbEntity
  8
Widoczne (ISO)
100
AcDbLine
 10
881.5733398392561
 20
2823.025740973412
 30
0.0
 11
882.4733398392561
 21
2822.125740973412
 31
0.0
  0
LINE
  5
30D
330
6C
100
AcDbEntity
  8
Widoczne (ISO)
100
AcDbLine
 10
882.4733398392561
 20
2822.125740973412
 30
0.0
 11
895.0733398392561
 21
2822.125740973412
 31
0.0
  0
LINE
  5
30E
330
6C
100
AcDbEntity
  8
Widoczne (ISO)
100
AcDbLine
 10
2939.873339839233
 20
2822.125740973408
 30
0.0
 11
2940.773339839232
 21
2823.025740973408
 31
0.0
  0
LINE
  5
30F
330
6C
100
AcDbEntity
  8
Widoczne (ISO)
100
AcDbLine
 10
2940.773339839232
 20
2823.025740973408
 30
0.0
 11
2940.773339839232
 21
2825.725740973408
 31
0.0
  0
LINE
  5
310
330
6C
100
AcDbEntity
  8
Widoczne (ISO)
100
AcDbLine
 10
2940.773339839232
 20
2840.305740973408
 30
0.0
 11
2940.773339839233
 21
3030.205740973408
 31
0.0
  0
LINE
  5
311
330
6C
100
AcDbEntity
  8
Widoczne (ISO)
100
AcDbLine
 10
2940.773339839233
 20
3044.785740973408
 30
0.0
 11
2940.773339839233
 21
3047.485740973408
 31
0.0
  0
LINE
  5
312
330
6C
100
AcDbEntity
  8
Widoczne (ISO)
100
AcDbLine
 10
2940.773339839233
 20
3047.485740973408
 30
0.0
 11
2939.873339839234
 21
3048.385740973408
 31
0.0
  0
LINE
  5
313
330
6C
100
AcDbEntity
  8
Widoczne (ISO)
100
AcDbLine
 10
2939.873339839234
 20
3048.385740973408
 30
0.0
 11
2927.273339839233
 21
3048.385740973408
 31
0.0
  0
LINE
  5
314
330
6C
100
AcDbEntity
  8
Widoczne (ISO)
100
AcDbLine
 10
2927.273339839233
 20
3048.385740973408
 30
0.0
 11
2926.373339839233
 21
3047.485740973408
 31
0.0
  0
LINE
  5
315
330
6C
100
AcDbEntity
  8
Widoczne (ISO)
100
AcDbLine
 10
2926.373339839233
 20
3047.485740973408
 30
0.0
 11
2926.373339839233
 21
3044.785740973408
 31
0.0
  0
LINE
  5
316
330
6C
100
AcDbEntity
  8
Widoczne (ISO)
100
AcDbLine
 10
2926.373339839233
 20
3030.205740973408
 30
0.0
 11
2926.373339839233
 21
2840.305740973409
 31
0.0
  0
LINE
  5
317
330
6C
100
AcDbEntity
  8
Widoczne (ISO)
100
AcDbLine
 10
2926.373339839233
 20
2825.725740973408
 30
0.0
 11
2926.373339839233
 21
2823.025740973408
 31
0.0
  0
LINE
  5
318
330
6C
100
AcDbEntity
  8
Widoczne (ISO)
100
AcDbLine
 10
2926.373339839233
 20
2823.025740973408
 30
0.0
 11
2927.273339839233
 21
2822.125740973408
 31
0.0
  0
LINE
  5
319
330
6C
100
AcDbEntity
  8
Widoczne (ISO)
100
AcDbLine
 10
2927.273339839233
 20
2822.125740973408
 30
0.0
 11
2939.873339839233
 21
2822.125740973408
 31
0.0
  0
LINE
  5
31A
330
6C
100
AcDbEntity
  8
Widoczne (ISO)
100
AcDbLine
 10
898.9433398392556
 20
3044.785740973413
 30
0.0
 11
888.7733398392557
 21
3044.785740973413
 31
0.0
  0
LINE
  5
31B
330
6C
100
AcDbEntity
  8
Widoczne (ISO)
100
AcDbLine
 10
888.7733398392557
 20
3044.785740973413
 30
0.0
 11
878.6033398392557
 21
3044.785740973413
 31
0.0
  0
SPLINE
  5
31C
330
6C
100
AcDbEntity
  8
Widoczne (ISO)
100
AcDbSpline
210
0.0
220
0.0
230
1.0
 70
    28
 71
     2
 72
     6
 73
     3
 74
     0
 42
0.0000000001
 43
0.0000000001
 40
0.0
 40
0.0
 40
0.0
 40
0.379741744875324
 40
0.379741744875324
 40
0.379741744875324
 10
900.4733398392556
 20
3035.014088735754
 30
0.0
 41
1.0
 10
900.4733398392557
 20
3033.969086885272
 30
0.0
 41
1.077350269189626
 10
900.4733398392557
 20
3033.969086885272
 30
0.0
 41
1.077350269189626
  0
SPLINE
  5
31D
330
6C
100
AcDbEntity
  8
Widoczne (ISO)
100
AcDbSpline
210
0.0
220
0.0
230
1.0
 70
    12
 71
     2
 72
     6
 73
     3
 74
     0
 42
0.0000000001
 43
0.0000000001
 40
0.0
 40
0.0
 40
0.0
 40
0.7594834897506475
 40
0.7594834897506475
 40
0.7594834897506475
 10
888.7733398392557
 20
3035.014088735754
 30
0.0
 41
1.0
 10
894.6233398392557
 20
3033.064088735754
 30
0.0
 41
1.154700538379251
 10
900.4733398392557
 20
3035.014088735754
 30
0.0
 41
1.0
  0
SPLINE
  5
31E
330
6C
100
AcDbEntity
  8
Widoczne (ISO)
100
AcDbSpline
210
0.0
220
0.0
230
1.0
 70
    12
 71
     2
 72
     6
 73
     3
 74
     0
 42
0.0000000001
 43
0.0000000001
 40
0.0
 40
0.0
 40
0.0
 40
0.7594834897506445
 40
0.7594834897506445
 40
0.7594834897506445
 10
877.0733398392556
 20
3035.014088735754
 30
0.0
 41
1.0
 10
882.9233398392558
 20
3033.064088735754
 30
0.0
 41
1.154700538379253
 10
888.7733398392557
 20
3035.014088735754
 30
0.0
 41
1.0
  0
SPLINE
  5
31F
330
6C
100
AcDbEntity
  8
Widoczne (ISO)
100
AcDbSpline
210
0.0
220
0.0
230
1.0
 70
    28
 71
     2
 72
     6
 73
     3
 74
     0
 42
0.0000000001
 43
0.0000000001
 40
0.3797417448753204
 40
0.3797417448753204
 40
0.3797417448753204
 40
0.7594834897506444
 40
0.7594834897506444
 40
0.7594834897506444
 10
877.0733398392556
 20
3033.969086885272
 30
0.0
 41
1.077350269189625
 10
877.0733398392556
 20
3033.969086885272
 30
0.0
 41
1.077350269189625
 10
877.0733398392556
 20
3035.014088735754
 30
0.0
 41
1.0
  0
SPLINE
  5
320
330
6C
100
AcDbEntity
  8
Widoczne (ISO)
100
AcDbSpline
210
0.0
220
0.0
230
1.0
 70
    12
 71
     2
 72
     6
 73
     3
 74
     0
 42
0.0000000001
 43
0.0000000001
 40
0.0
 40
0.0
 40
0.0
 40
0.7594834897506468
 40
0.7594834897506468
 40
0.7594834897506468
 10
900.4733398392556
 20
3042.857393211071
 30
0.0
 41
1.0
 10
894.6233398392557
 20
3044.807393211071
 30
0.0
 41
1.15470053837925
 10
888.7733398392557
 20
3042.857393211071
 30
0.0
 41
1.0
  0
SPLINE
  5
321
330
6C
100
AcDbEntity
  8
Widoczne (ISO)
100
AcDbSpline
210
0.0
220
0.0
230
1.0
 70
    28
 71
     2
 72
     6
 73
     3
 74
     0
 42
0.0000000001
 43
0.0000000001
 40
0.3797417448753213
 40
0.3797417448753213
 40
0.3797417448753213
 40
0.7594834897506467
 40
0.7594834897506467
 40
0.7594834897506467
 10
900.4733398392556
 20
3043.902395061552
 30
0.0
 41
1.077350269189625
 10
900.4733398392556
 20
3043.902395061552
 30
0.0
 41
1.077350269189625
 10
900.4733398392556
 20
3042.857393211071
 30
0.0
 41
1.0
  0
SPLINE
  5
322
330
6C
100
AcDbEntity
  8
Widoczne (ISO)
100
AcDbSpline
210
0.0
220
0.0
230
1.0
 70
    28
 71
     2
 72
     6
 73
     3
 74
     0
 42
0.0000000001
 43
0.0000000001
 40
0.0
 40
0.0
 40
0.0
 40
0.3797417448753234
 40
0.3797417448753234
 40
0.3797417448753234
 10
877.0733398392556
 20
3042.857393211071
 30
0.0
 41
1.0
 10
877.0733398392556
 20
3043.902395061552
 30
0.0
 41
1.077350269189625
 10
877.0733398392556
 20
3043.902395061552
 30
0.0
 41
1.077350269189624
  0
SPLINE
  5
323
330
6C
100
AcDbEntity
  8
Widoczne (ISO)
100
AcDbSpline
210
0.0
220
0.0
230
1.0
 70
    12
 71
     2
 72
     6
 73
     3
 74
     0
 42
0.0000000001
 43
0.0000000001
 40
0.0
 40
0.0
 40
0.0
 40
0.7594834897506443
 40
0.7594834897506443
 40
0.7594834897506443
 10
888.7733398392557
 20
3042.857393211071
 30
0.0
 41
1.0
 10
882.9233398392556
 20
3044.807393211071
 30
0.0
 41
1.154700538379249
 10
877.0733398392556
 20
3042.857393211071
 30
0.0
 41
1.0
  0
LINE
  5
324
330
6C
100
AcDbEntity
  8
Widoczne (ISO)
100
AcDbLine
 10
878.6033398392557
 20
3033.085740973412
 30
0.0
 11
877.0733398392557
 21
3033.969086885272
 31
0.0
  0
LINE
  5
325
330
6C
100
AcDbEntity
  8
Widoczne (ISO)
100
AcDbLine
 10
898.9433398392556
 20
3033.085740973412
 30
0.0
 11
900.4733398392556
 21
3033.969086885272
 31
0.0
  0
LINE
  5
326
330
6C
100
AcDbEntity
  8
Widoczne (ISO)
100
AcDbLine
 10
898.9433398392556
 20
3044.785740973413
 30
0.0
 11
900.4733398392556
 21
3043.902395061552
 31
0.0
  0
LINE
  5
327
330
6C
100
AcDbEntity
  8
Widoczne (ISO)
100
AcDbLine
 10
878.6033398392557
 20
3044.785740973413
 30
0.0
 11
877.0733398392556
 21
3043.902395061552
 31
0.0
  0
LINE
  5
328
330
6C
100
AcDbEntity
  8
Widoczne (ISO)
100
AcDbLine
 10
888.7733398392557
 20
3035.014088735754
 30
0.0
 11
888.7733398392557
 21
3042.857393211071
 31
0.0
  0
LINE
  5
329
330
6C
100
AcDbEntity
  8
Widoczne (ISO)
100
AcDbLine
 10
877.0733398392556
 20
3035.014088735754
 30
0.0
 11
877.0733398392556
 21
3042.857393211071
 31
0.0
  0
LINE
  5
32A
330
6C
100
AcDbEntity
  8
Widoczne (ISO)
100
AcDbLine
 10
900.4733398392556
 20
3035.014088735754
 30
0.0
 11
900.4733398392556
 21
3042.857393211071
 31
0.0
  0
LINE
  5
32B
330
6C
100
AcDbEntity
  8
Widoczne (ISO)
100
AcDbLine
 10
878.6033398392563
 20
2825.725740973412
 30
0.0
 11
898.9433398392561
 21
2825.725740973412
 31
0.0
  0
SPLINE
  5
32C
330
6C
100
AcDbEntity
  8
Widoczne (ISO)
100
AcDbSpline
210
0.0
220
0.0
230
1.0
 70
    28
 71
     2
 72
     6
 73
     3
 74
     0
 42
0.0000000001
 43
0.0000000001
 40
0.379741744875324
 40
0.379741744875324
 40
0.379741744875324
 40
0.759483489750648
 40
0.759483489750648
 40
0.759483489750648
 10
900.4733398392563
 20
2836.542395061552
 30
0.0
 41
1.077350269189626
 10
900.4733398392563
 20
2836.542395061552
 30
0.0
 41
1.077350269189626
 10
900.4733398392559
 20
2835.497393211071
 30
0.0
 41
1.0
  0
SPLINE
  5
32D
330
6C
100
AcDbEntity
  8
Widoczne (ISO)
100
AcDbSpline
210
0.0
220
0.0
230
1.0
 70
    28
 71
     2
 72
     6
 73
     3
 74
     0
 42
0.0000000001
 43
0.0000000001
 40
0.0
 40
0.0
 40
0.0
 40
0.3797417448753241
 40
0.3797417448753241
 40
0.3797417448753241
 10
877.0733398392561
 20
2835.497393211071
 30
0.0
 41
1.0
 10
877.0733398392561
 20
2836.542395061552
 30
0.0
 41
1.077350269189625
 10
877.0733398392561
 20
2836.542395061552
 30
0.0
 41
1.077350269189625
  0
SPLINE
  5
32E
330
6C
100
AcDbEntity
  8
Widoczne (ISO)
100
AcDbSpline
210
0.0
220
0.0
230
1.0
 70
    12
 71
     2
 72
     6
 73
     3
 74
     0
 42
0.0000000001
 43
0.0000000001
 40
0.0
 40
0.0
 40
0.0
 40
0.7594834897506489
 40
0.7594834897506489
 40
0.7594834897506489
 10
888.7733398392562
 20
2835.497393211071
 30
0.0
 41
1.0
 10
882.9233398392561
 20
2837.447393211071
 30
0.0
 41
1.154700538379251
 10
877.0733398392561
 20
2835.497393211071
 30
0.0
 41
1.0
  0
SPLINE
  5
32F
330
6C
100
AcDbEntity
  8
Widoczne (ISO)
100
AcDbSpline
210
0.0
220
0.0
230
1.0
 70
    12
 71
     2
 72
     6
 73
     3
 74
     0
 42
0.0000000001
 43
0.0000000001
 40
0.0
 40
0.0
 40
0.0
 40
0.7594834897506471
 40
0.7594834897506471
 40
0.7594834897506471
 10
900.4733398392563
 20
2835.497393211071
 30
0.0
 41
1.0
 10
894.6233398392562
 20
2837.447393211071
 30
0.0
 41
1.154700538379249
 10
888.7733398392562
 20
2835.497393211071
 30
0.0
 41
1.0
  0
SPLINE
  5
330
330
6C
100
AcDbEntity
  8
Widoczne (ISO)
100
AcDbSpline
210
0.0
220
0.0
230
1.0
 70
    28
 71
     2
 72
     6
 73
     3
 74
     0
 42
0.0000000001
 43
0.0000000001
 40
0.0
 40
0.0
 40
0.0
 40
0.3797417448753255
 40
0.3797417448753255
 40
0.3797417448753255
 10
900.4733398392563
 20
2827.654088735754
 30
0.0
 41
1.0
 10
900.4733398392563
 20
2826.609086885272
 30
0.0
 41
1.077350269189625
 10
900.4733398392563
 20
2826.609086885272
 30
0.0
 41
1.077350269189625
  0
SPLINE
  5
331
330
6C
100
AcDbEntity
  8
Widoczne (ISO)
100
AcDbSpline
210
0.0
220
0.0
230
1.0
 70
    12
 71
     2
 72
     6
 73
     3
 74
     0
 42
0.0000000001
 43
0.0000000001
 40
0.0
 40
0.0
 40
0.0
 40
0.7594834897506465
 40
0.7594834897506465
 40
0.7594834897506465
 10
888.7733398392562
 20
2827.654088735754
 30
0.0
 41
1.0
 10
894.6233398392561
 20
2825.704088735753
 30
0.0
 41
1.154700538379243
 10
900.4733398392563
 20
2827.654088735754
 30
0.0
 41
1.0
  0
SPLINE
  5
332
330
6C
100
AcDbEntity
  8
Widoczne (ISO)
100
AcDbSpline
210
0.0
220
0.0
230
1.0
 70
    12
 71
     2
 72
     6
 73
     3
 74
     0
 42
0.0000000001
 43
0.0000000001
 40
0.0
 40
0.0
 40
0.0
 40
0.7594834897506477
 40
0.7594834897506477
 40
0.7594834897506477
 10
877.0733398392561
 20
2827.654088735754
 30
0.0
 41
1.0
 10
882.9233398392561
 20
2825.704088735753
 30
0.0
 41
1.154700538379255
 10
888.7733398392562
 20
2827.654088735754
 30
0.0
 41
1.0
  0
SPLINE
  5
333
330
6C
100
AcDbEntity
  8
Widoczne (ISO)
100
AcDbSpline
210
0.0
220
0.0
230
1.0
 70
    28
 71
     2
 72
     6
 73
     3
 74
     0
 42
0.0000000001
 43
0.0000000001
 40
0.3797417448753198
 40
0.3797417448753198
 40
0.3797417448753198
 40
0.7594834897506432
 40
0.7594834897506432
 40
0.7594834897506432
 10
877.0733398392563
 20
2826.609086885272
 30
0.0
 41
1.077350269189624
 10
877.0733398392561
 20
2826.609086885272
 30
0.0
 41
1.077350269189625
 10
877.0733398392561
 20
2827.654088735754
 30
0.0
 41
1.0
  0
LINE
  5
334
330
6C
100
AcDbEntity
  8
Widoczne (ISO)
100
AcDbLine
 10
898.9433398392561
 20
2837.425740973412
 30
0.0
 11
900.4733398392559
 21
2836.542395061552
 31
0.0
  0
LINE
  5
335
330
6C
100
AcDbEntity
  8
Widoczne (ISO)
100
AcDbLine
 10
878.6033398392563
 20
2837.425740973412
 30
0.0
 11
877.0733398392563
 21
2836.542395061552
 31
0.0
  0
LINE
  5
336
330
6C
100
AcDbEntity
  8
Widoczne (ISO)
100
AcDbLine
 10
878.6033398392563
 20
2825.725740973412
 30
0.0
 11
877.0733398392563
 21
2826.609086885272
 31
0.0
  0
LINE
  5
337
330
6C
100
AcDbEntity
  8
Widoczne (ISO)
100
AcDbLine
 10
898.9433398392561
 20
2825.725740973412
 30
0.0
 11
900.4733398392563
 21
2826.609086885273
 31
0.0
  0
LINE
  5
338
330
6C
100
AcDbEntity
  8
Widoczne (ISO)
100
AcDbLine
 10
877.0733398392563
 20
2835.497393211071
 30
0.0
 11
877.0733398392563
 21
2827.654088735754
 31
0.0
  0
LINE
  5
339
330
6C
100
AcDbEntity
  8
Widoczne (ISO)
100
AcDbLine
 10
900.4733398392559
 20
2835.497393211071
 30
0.0
 11
900.4733398392559
 21
2827.654088735754
 31
0.0
  0
LINE
  5
33A
330
6C
100
AcDbEntity
  8
Widoczne (ISO)
100
AcDbLine
 10
888.7733398392562
 20
2835.497393211071
 30
0.0
 11
888.7733398392562
 21
2827.654088735754
 31
0.0
  0
LINE
  5
33B
330
6C
100
AcDbEntity
  8
Widoczne (ISO)
100
AcDbLine
 10
2943.743339839233
 20
3044.785740973408
 30
0.0
 11
2933.573339839233
 21
3044.785740973408
 31
0.0
  0
LINE
  5
33C
330
6C
100
AcDbEntity
  8
Widoczne (ISO)
100
AcDbLine
 10
2933.573339839233
 20
3044.785740973408
 30
0.0
 11
2923.403339839233
 21
3044.785740973408
 31
0.0
  0
SPLINE
  5
33D
330
6C
100
AcDbEntity
  8
Widoczne (ISO)
100
AcDbSpline
210
0.0
220
0.0
230
1.0
 70
    28
 71
     2
 72
     6
 73
     3
 74
     0
 42
0.0000000001
 43
0.0000000001
 40
0.0
 40
0.0
 40
0.0
 40
0.3797417448753263
 40
0.3797417448753263
 40
0.3797417448753263
 10
2945.273339839233
 20
3035.01408873575
 30
0.0
 41
1.0
 10
2945.273339839233
 20
3033.969086885268
 30
0.0
 41
1.077350269189626
 10
2945.273339839233
 20
3033.969086885268
 30
0.0
 41
1.077350269189626
  0
SPLINE
  5
33E
330
6C
100
AcDbEntity
  8
Widoczne (ISO)
100
AcDbSpline
210
0.0
220
0.0
230
1.0
 70
    12
 71
     2
 72
     6
 73
     3
 74
     0
 42
0.0000000001
 43
0.0000000001
 40
0.0
 40
0.0
 40
0.0
 40
0.7594834897506475
 40
0.7594834897506475
 40
0.7594834897506475
 10
2933.573339839233
 20
3035.01408873575
 30
0.0
 41
1.0
 10
2939.423339839233
 20
3033.06408873575
 30
0.0
 41
1.154700538379251
 10
2945.273339839233
 20
3035.01408873575
 30
0.0
 41
1.0
  0
SPLINE
  5
33F
330
6C
100
AcDbEntity
  8
Widoczne (ISO)
100
AcDbSpline
210
0.0
220
0.0
230
1.0
 70
    12
 71
     2
 72
     6
 73
     3
 74
     0
 42
0.0000000001
 43
0.0000000001
 40
0.0
 40
0.0
 40
0.0
 40
0.7594834897506445
 40
0.7594834897506445
 40
0.7594834897506445
 10
2921.873339839233
 20
3035.01408873575
 30
0.0
 41
1.0
 10
2927.723339839234
 20
3033.06408873575
 30
0.0
 41
1.154700538379253
 10
2933.573339839233
 20
3035.01408873575
 30
0.0
 41
1.0
  0
SPLINE
  5
340
330
6C
100
AcDbEntity
  8
Widoczne (ISO)
100
AcDbSpline
210
0.0
220
0.0
230
1.0
 70
    28
 71
     2
 72
     6
 73
     3
 74
     0
 42
0.0000000001
 43
0.0000000001
 40
0.3797417448753202
 40
0.3797417448753202
 40
0.3797417448753202
 40
0.7594834897506444
 40
0.7594834897506444
 40
0.7594834897506444
 10
2921.873339839233
 20
3033.969086885268
 30
0.0
 41
1.077350269189625
 10
2921.873339839233
 20
3033.969086885268
 30
0.0
 41
1.077350269189625
 10
2921.873339839233
 20
3035.01408873575
 30
0.0
 41
1.0
  0
SPLINE
  5
341
330
6C
100
AcDbEntity
  8
Widoczne (ISO)
100
AcDbSpline
210
0.0
220
0.0
230
1.0
 70
    12
 71
     2
 72
     6
 73
     3
 74
     0
 42
0.0000000001
 43
0.0000000001
 40
0.0
 40
0.0
 40
0.0
 40
0.7594834897506468
 40
0.7594834897506468
 40
0.7594834897506468
 10
2945.273339839233
 20
3042.857393211067
 30
0.0
 41
1.0
 10
2939.423339839233
 20
3044.807393211067
 30
0.0
 41
1.15470053837925
 10
2933.573339839233
 20
3042.857393211067
 30
0.0
 41
1.0
  0
SPLINE
  5
342
330
6C
100
AcDbEntity
  8
Widoczne (ISO)
100
AcDbSpline
210
0.0
220
0.0
230
1.0
 70
    28
 71
     2
 72
     6
 73
     3
 74
     0
 42
0.0000000001
 43
0.0000000001
 40
0.3797417448753213
 40
0.3797417448753213
 40
0.3797417448753213
 40
0.7594834897506467
 40
0.7594834897506467
 40
0.7594834897506467
 10
2945.273339839233
 20
3043.902395061548
 30
0.0
 41
1.077350269189625
 10
2945.273339839233
 20
3043.902395061548
 30
0.0
 41
1.077350269189625
 10
2945.273339839233
 20
3042.857393211067
 30
0.0
 41
1.0
  0
SPLINE
  5
343
330
6C
100
AcDbEntity
  8
Widoczne (ISO)
100
AcDbSpline
210
0.0
220
0.0
230
1.0
 70
    28
 71
     2
 72
     6
 73
     3
 74
     0
 42
0.0000000001
 43
0.0000000001
 40
0.0
 40
0.0
 40
0.0
 40
0.3797417448753233
 40
0.3797417448753233
 40
0.3797417448753233
 10
2921.873339839233
 20
3042.857393211067
 30
0.0
 41
1.0
 10
2921.873339839233
 20
3043.902395061548
 30
0.0
 41
1.077350269189625
 10
2921.873339839233
 20
3043.902395061548
 30
0.0
 41
1.077350269189624
  0
SPLINE
  5
344
330
6C
100
AcDbEntity
  8
Widoczne (ISO)
100
AcDbSpline
210
0.0
220
0.0
230
1.0
 70
    12
 71
     2
 72
     6
 73
     3
 74
     0
 42
0.0000000001
 43
0.0000000001
 40
0.0
 40
0.0
 40
0.0
 40
0.7594834897506443
 40
0.7594834897506443
 40
0.7594834897506443
 10
2933.573339839233
 20
3042.857393211067
 30
0.0
 41
1.0
 10
2927.723339839234
 20
3044.807393211067
 30
0.0
 41
1.154700538379249
 10
2921.873339839233
 20
3042.857393211067
 30
0.0
 41
1.0
  0
LINE
  5
345
330
6C
100
AcDbEntity
  8
Widoczne (ISO)
100
AcDbLine
 10
2923.403339839233
 20
3033.085740973408
 30
0.0
 11
2921.873339839233
 21
3033.969086885268
 31
0.0
  0
LINE
  5
346
330
6C
100
AcDbEntity
  8
Widoczne (ISO)
100
AcDbLine
 10
2943.743339839233
 20
3033.085740973408
 30
0.0
 11
2945.273339839233
 21
3033.969086885268
 31
0.0
  0
LINE
  5
347
330
6C
100
AcDbEntity
  8
Widoczne (ISO)
100
AcDbLine
 10
2943.743339839233
 20
3044.785740973408
 30
0.0
 11
2945.273339839233
 21
3043.902395061548
 31
0.0
  0
LINE
  5
348
330
6C
100
AcDbEntity
  8
Widoczne (ISO)
100
AcDbLine
 10
2923.403339839233
 20
3044.785740973408
 30
0.0
 11
2921.873339839233
 21
3043.902395061548
 31
0.0
  0
LINE
  5
349
330
6C
100
AcDbEntity
  8
Widoczne (ISO)
100
AcDbLine
 10
2933.573339839233
 20
3035.01408873575
 30
0.0
 11
2933.573339839233
 21
3042.857393211067
 31
0.0
  0
LINE
  5
34A
330
6C
100
AcDbEntity
  8
Widoczne (ISO)
100
AcDbLine
 10
2921.873339839233
 20
3035.01408873575
 30
0.0
 11
2921.873339839233
 21
3042.857393211067
 31
0.0
  0
LINE
  5
34B
330
6C
100
AcDbEntity
  8
Widoczne (ISO)
100
AcDbLine
 10
2945.273339839233
 20
3035.01408873575
 30
0.0
 11
2945.273339839233
 21
3042.857393211067
 31
0.0
  0
LINE
  5
34C
330
6C
100
AcDbEntity
  8
Widoczne (ISO)
100
AcDbLine
 10
2923.403339839233
 20
2825.725740973408
 30
0.0
 11
2943.743339839232
 21
2825.725740973408
 31
0.0
  0
SPLINE
  5
34D
330
6C
100
AcDbEntity
  8
Widoczne (ISO)
100
AcDbSpline
210
0.0
220
0.0
230
1.0
 70
    28
 71
     2
 72
     6
 73
     3
 74
     0
 42
0.0000000001
 43
0.0000000001
 40
0.3797417448753219
 40
0.3797417448753219
 40
0.3797417448753219
 40
0.759483489750648
 40
0.759483489750648
 40
0.759483489750648
 10
2945.273339839232
 20
2836.542395061549
 30
0.0
 41
1.077350269189626
 10
2945.273339839232
 20
2836.542395061549
 30
0.0
 41
1.077350269189626
 10
2945.273339839232
 20
2835.497393211066
 30
0.0
 41
1.0
  0
SPLINE
  5
34E
330
6C
100
AcDbEntity
  8
Widoczne (ISO)
100
AcDbSpline
210
0.0
220
0.0
230
1.0
 70
    28
 71
     2
 72
     6
 73
     3
 74
     0
 42
0.0000000001
 43
0.0000000001
 40
0.0
 40
0.0
 40
0.0
 40
0.379741744875324
 40
0.379741744875324
 40
0.379741744875324
 10
2921.873339839232
 20
2835.497393211066
 30
0.0
 41
1.0
 10
2921.873339839232
 20
2836.542395061549
 30
0.0
 41
1.077350269189625
 10
2921.873339839232
 20
2836.542395061549
 30
0.0
 41
1.077350269189625
  0
SPLINE
  5
34F
330
6C
100
AcDbEntity
  8
Widoczne (ISO)
100
AcDbSpline
210
0.0
220
0.0
230
1.0
 70
    12
 71
     2
 72
     6
 73
     3
 74
     0
 42
0.0000000001
 43
0.0000000001
 40
0.0
 40
0.0
 40
0.0
 40
0.7594834897506489
 40
0.7594834897506489
 40
0.7594834897506489
 10
2933.573339839232
 20
2835.497393211066
 30
0.0
 41
1.0
 10
2927.723339839232
 20
2837.447393211066
 30
0.0
 41
1.154700538379251
 10
2921.873339839232
 20
2835.497393211066
 30
0.0
 41
1.0
  0
SPLINE
  5
350
330
6C
100
AcDbEntity
  8
Widoczne (ISO)
100
AcDbSpline
210
0.0
220
0.0
230
1.0
 70
    12
 71
     2
 72
     6
 73
     3
 74
     0
 42
0.0000000001
 43
0.0000000001
 40
0.0
 40
0.0
 40
0.0
 40
0.7594834897506471
 40
0.7594834897506471
 40
0.7594834897506471
 10
2945.273339839232
 20
2835.497393211066
 30
0.0
 41
1.0
 10
2939.423339839232
 20
2837.447393211066
 30
0.0
 41
1.154700538379249
 10
2933.573339839232
 20
2835.497393211066
 30
0.0
 41
1.0
  0
SPLINE
  5
351
330
6C
100
AcDbEntity
  8
Widoczne (ISO)
100
AcDbSpline
210
0.0
220
0.0
230
1.0
 70
    28
 71
     2
 72
     6
 73
     3
 74
     0
 42
0.0000000001
 43
0.0000000001
 40
0.0
 40
0.0
 40
0.0
 40
0.3797417448753256
 40
0.3797417448753256
 40
0.3797417448753256
 10
2945.273339839232
 20
2827.654088735749
 30
0.0
 41
1.0
 10
2945.273339839232
 20
2826.609086885268
 30
0.0
 41
1.077350269189625
 10
2945.273339839232
 20
2826.609086885268
 30
0.0
 41
1.077350269189625
  0
SPLINE
  5
352
330
6C
100
AcDbEntity
  8
Widoczne (ISO)
100
AcDbSpline
210
0.0
220
0.0
230
1.0
 70
    12
 71
     2
 72
     6
 73
     3
 74
     0
 42
0.0000000001
 43
0.0000000001
 40
0.0
 40
0.0
 40
0.0
 40
0.7594834897506465
 40
0.7594834897506465
 40
0.7594834897506465
 10
2933.573339839232
 20
2827.654088735749
 30
0.0
 41
1.0
 10
2939.423339839232
 20
2825.70408873575
 30
0.0
 41
1.154700538379243
 10
2945.273339839232
 20
2827.654088735749
 30
0.0
 41
1.0
  0
SPLINE
  5
353
330
6C
100
AcDbEntity
  8
Widoczne (ISO)
100
AcDbSpline
210
0.0
220
0.0
230
1.0
 70
    12
 71
     2
 72
     6
 73
     3
 74
     0
 42
0.0000000001
 43
0.0000000001
 40
0.0
 40
0.0
 40
0.0
 40
0.7594834897506477
 40
0.7594834897506477
 40
0.7594834897506477
 10
2921.873339839232
 20
2827.654088735749
 30
0.0
 41
1.0
 10
2927.723339839232
 20
2825.704088735749
 30
0.0
 41
1.154700538379255
 10
2933.573339839232
 20
2827.654088735749
 30
0.0
 41
1.0
  0
SPLINE
  5
354
330
6C
100
AcDbEntity
  8
Widoczne (ISO)
100
AcDbSpline
210
0.0
220
0.0
230
1.0
 70
    28
 71
     2
 72
     6
 73
     3
 74
     0
 42
0.0000000001
 43
0.0000000001
 40
0.3797417448753197
 40
0.3797417448753197
 40
0.3797417448753197
 40
0.7594834897506432
 40
0.7594834897506432
 40
0.7594834897506432
 10
2921.873339839232
 20
2826.609086885269
 30
0.0
 41
1.077350269189624
 10
2921.873339839232
 20
2826.609086885268
 30
0.0
 41
1.077350269189625
 10
2921.873339839232
 20
2827.654088735749
 30
0.0
 41
1.0
  0
LINE
  5
355
330
6C
100
AcDbEntity
  8
Widoczne (ISO)
100
AcDbLine
 10
2943.743339839232
 20
2837.425740973408
 30
0.0
 11
2945.273339839232
 21
2836.542395061548
 31
0.0
  0
LINE
  5
356
330
6C
100
AcDbEntity
  8
Widoczne (ISO)
100
AcDbLine
 10
2923.403339839233
 20
2837.425740973408
 30
0.0
 11
2921.873339839232
 21
2836.542395061548
 31
0.0
  0
LINE
  5
357
330
6C
100
AcDbEntity
  8
Widoczne (ISO)
100
AcDbLine
 10
2923.403339839233
 20
2825.725740973408
 30
0.0
 11
2921.873339839232
 21
2826.609086885269
 31
0.0
  0
LINE
  5
358
330
6C
100
AcDbEntity
  8
Widoczne (ISO)
100
AcDbLine
 10
2943.743339839232
 20
2825.725740973408
 30
0.0
 11
2945.273339839232
 21
2826.609086885268
 31
0.0
  0
LINE
  5
359
330
6C
100
AcDbEntity
  8
Widoczne (ISO)
100
AcDbLine
 10
2921.873339839232
 20
2835.497393211066
 30
0.0
 11
2921.873339839232
 21
2827.654088735749
 31
0.0
  0
LINE
  5
35A
330
6C
100
AcDbEntity
  8
Widoczne (ISO)
100
AcDbLine
 10
2945.273339839232
 20
2835.497393211066
 30
0.0
 11
2945.273339839232
 21
2827.654088735749
 31
0.0
  0
LINE
  5
35B
330
6C
100
AcDbEntity
  8
Widoczne (ISO)
100
AcDbLine
 10
2933.573339839232
 20
2835.497393211066
 30
0.0
 11
2933.573339839232
 21
2827.654088735749
 31
0.0
  0
LINE
  5
35C
330
6C
100
AcDbEntity
  8
Widoczne (ISO)
100
AcDbLine
 10
1041.773339839264
 20
3049.285740973413
 30
0.0
 11
1011.173339839264
 21
3049.285740973413
 31
0.0
  0
LINE
  5
35D
330
6C
100
AcDbEntity
  8
Widoczne (ISO)
100
AcDbLine
 10
1011.173339839264
 20
3049.285740973413
 30
0.0
 11
1011.173339839264
 21
2776.585740973413
 31
0.0
  0
LINE
  5
35E
330
6C
100
AcDbEntity
  8
Widoczne (ISO)
100
AcDbLine
 10
1011.173339839264
 20
2776.585740973413
 30
0.0
 11
1041.773339839264
 21
2776.585740973413
 31
0.0
  0
LINE
  5
35F
330
6C
100
AcDbEntity
  8
Widoczne (ISO)
100
AcDbLine
 10
1041.773339839264
 20
2776.585740973413
 30
0.0
 11
1041.773339839264
 21
3049.285740973412
 31
0.0
  0
LINE
  5
360
330
6C
100
AcDbEntity
  8
Widoczne (ISO)
100
AcDbLine
 10
904.9733398392636
 20
2757.99457214887
 30
0.0
 11
899.8821710147204
 21
2763.085740973413
 31
0.0
  0
LINE
  5
361
330
6C
100
AcDbEntity
  8
Widoczne (ISO)
100
AcDbLine
 10
904.9733398392636
 20
2757.99457214887
 30
0.0
 11
919.3733398392636
 21
2757.99457214887
 31
0.0
  0
LINE
  5
362
330
6C
100
AcDbEntity
  8
Widoczne (ISO)
100
AcDbLine
 10
919.3733398392636
 20
2757.99457214887
 30
0.0
 11
919.3733398392636
 21
2763.085740973413
 31
0.0
  0
LINE
  5
363
330
6C
100
AcDbEntity
  8
Widoczne (ISO)
100
AcDbLine
 10
904.9733398392636
 20
2763.085740973413
 30
0.0
 11
904.9733398392636
 21
2757.99457214887
 31
0.0
  0
LINE
  5
364
330
6C
100
AcDbEntity
  8
Widoczne (ISO)
100
AcDbLine
 10
924.4645086638067
 20
2763.085740973413
 30
0.0
 11
919.3733398392636
 21
2757.99457214887
 31
0.0
  0
LINE
  5
365
330
6C
100
AcDbEntity
  8
Widoczne (ISO)
100
AcDbLine
 10
962.8821710147207
 20
2669.485740973412
 30
0.0
 11
959.2821710147207
 21
2673.085740973412
 31
0.0
  0
LINE
  5
366
330
6C
100
AcDbEntity
  8
Widoczne (ISO)
100
AcDbLine
 10
959.2821710147207
 20
2687.485740973412
 30
0.0
 11
959.2821710147207
 21
2673.085740973412
 31
0.0
  0
LINE
  5
367
330
6C
100
AcDbEntity
  8
Widoczne (ISO)
100
AcDbLine
 10
959.2821710147207
 20
2673.085740973412
 30
0.0
 11
964.3733398392638
 21
2673.085740973412
 31
0.0
  0
LINE
  5
368
330
6C
100
AcDbEntity
  8
Widoczne (ISO)
100
AcDbLine
 10
964.3733398392638
 20
2687.485740973412
 30
0.0
 11
959.2821710147207
 21
2687.485740973412
 31
0.0
  0
LINE
  5
369
330
6C
100
AcDbEntity
  8
Widoczne (ISO)
100
AcDbLine
 10
959.2821710147207
 20
2687.485740973412
 30
0.0
 11
962.8821710147205
 21
2691.085740973412
 31
0.0
  0
MTEXT
  5
36A
330
6C
100
AcDbEntity
  8
Symbol (ISO)
100
AcDbMText
 10
1580.495399437307
 20
8301.286017822929
 30
0.0
 40
62.99999892711639
 41
0.0
 71
     7
 72
     1
  1
M-M ( 1:10 )
  7
Tekst notatki (ISO)
 73
     1
 44
1.0
1001
ACAD
1000
MTEXTBEGIN
1070
    73
1070
     1
1070
    44
1040
1.0
1070
    74
1070
     0
1000
MTEXTEND
  0
HATCH
  5
383
330
6C
100
AcDbEntity
  8
Kreskowanie (ISO)
100
AcDbHatch
 10
0.0
 20
0.0
 30
0.0
210
0.0
220
0.0
230
1.0
  2
ANSI31
 70
     0
 71
     0
 91
        2
 92
        1
 93
       12
 72
     1
 10
561.1733398392714
 20
2845.885740973412
 11
838.1933398392636
 21
2845.885740973412
 72
     1
 10
838.1933398392636
 20
2845.885740973412
 11
852.7733398392635
 21
2845.885740973412
 72
     1
 10
852.7733398392635
 20
2845.885740973412
 11
881.5733398392563
 21
2845.885740973412
 72
     1
 10
881.5733398392563
 20
2845.885740973412
 11
895.9733398392559
 21
2845.885740973412
 72
     1
 10
895.9733398392559
 20
2845.885740973412
 11
1011.173339839272
 21
2845.885740973412
 72
     1
 10
1011.173339839272
 20
2845.885740973412
 11
1011.173339839272
 21
3025.885740973413
 72
     1
 10
1011.173339839272
 20
3025.885740973413
 11
895.9733398392556
 21
3025.885740973413
 72
     1
 10
895.9733398392556
 20
3025.885740973413
 11
881.5733398392557
 21
3025.885740973413
 72
     1
 10
881.5733398392557
 20
3025.885740973413
 11
845.5733398392533
 21
3025.885740973413
 72
     1
 10
845.5733398392531
 20
3025.885740973413
 11
835.8533398392532
 21
3025.885740973413
 72
     1
 10
835.8533398392534
 20
3025.885740973413
 11
561.1733398392716
 21
3025.885740973413
 72
     1
 10
561.1733398392714
 20
3025.885740973413
 11
561.1733398392714
 21
2845.885740973413
 97
        0
 92
        1
 93
       12
 72
     1
 10
2811.173339839272
 20
2845.885740973412
 11
2926.373339839233
 21
2845.885740973412
 72
     1
 10
2926.373339839233
 20
2845.885740973412
 11
2940.773339839232
 21
2845.885740973412
 72
     1
 10
2940.773339839232
 20
2845.885740973412
 11
2969.573339839273
 21
2845.885740973412
 72
     1
 10
2969.573339839273
 20
2845.885740973412
 11
2984.153339839273
 21
2845.885740973412
 72
     1
 10
2984.153339839273
 20
2845.885740973412
 11
3261.173339839273
 21
2845.885740973412
 72
     1
 10
3261.173339839273
 20
2845.885740973412
 11
3261.173339839273
 21
3025.885740973413
 72
     1
 10
3261.173339839273
 20
3025.885740973413
 11
2986.493339839233
 21
3025.885740973413
 72
     1
 10
2986.493339839233
 20
3025.885740973413
 11
2976.773339839234
 21
3025.885740973413
 72
     1
 10
2976.773339839234
 20
3025.885740973413
 11
2940.773339839232
 21
3025.885740973413
 72
     1
 10
2940.773339839233
 20
3025.885740973413
 11
2926.373339839233
 21
3025.885740973413
 72
     1
 10
2926.373339839233
 20
3025.885740973413
 11
2811.173339839273
 21
3025.885740973413
 72
     1
 10
2811.173339839272
 20
3025.885740973413
 11
2811.173339839272
 21
2845.885740973413
 97
        0
 75
     0
 76
     1
 52
0.0
 41
457.2
 77
     0
 78
     1
 53
45.0
 43
0.0
 44
0.0
 45
-40.41115254481119
 46
40.41115254481119
 79
     0
 98
        1
 10
1911.173339839272
 20
2928.707068568499
  0
HATCH
  5
3A4
330
6C
100
AcDbEntity
  8
Kreskowanie (ISO)
100
AcDbHatch
 10
0.0
 20
0.0
 30
0.0
210
0.0
220
0.0
230
1.0
  2
ANSI31
 70
     0
 71
     0
 91
        2
 92
        1
 93
       19
 72
     1
 10
1043.573339839264
 20
2845.885740973412
 11
1043.573339839264
 21
2843.185740973412
 72
     1
 10
1043.573339839264
 20
2843.185740973412
 11
1058.153339839264
 21
2843.185740973412
 72
     3
 10
1058.153339839263
 20
2838.865740973412
 11
-0.000000000000032
 21
4.319999999999996
 40
1.0
 50
0.0000000000021373
 51
90.0000000000006
 73
     0
 72
     1
 10
1062.473339839264
 20
2838.865740973412
 11
1062.473339839264
 21
2780.905740973413
 72
     3
 10
1058.153339839263
 20
2780.905740973413
 11
4.319999999999971
 21
0.000000000000022
 40
1.0
 50
0.0000000000003053
 51
90.0000000000003
 73
     0
 72
     1
 10
1058.153339839263
 20
2776.585740973413
 11
1041.773339839264
 21
2776.585740973413
 72
     1
 10
1041.773339839264
 20
2776.585740973413
 11
1011.173339839264
 21
2776.585740973413
 72
     1
 10
1011.173339839264
 20
2776.585740973413
 11
908.1233398392637
 21
2776.585740973413
 72
     1
 10
908.1233398392637
 20
2776.585740973413
 11
908.1233398392637
 21
2773.885740973413
 72
     1
 10
908.1233398392637
 20
2773.885740973412
 11
911.2733398392636
 21
2773.885740973412
 72
     1
 10
911.2733398392638
 20
2773.885740973412
 11
997.1772709791345
 21
2773.885740973412
 72
     1
 10
997.1772709791343
 20
2773.885740973412
 11
1008.690183239564
 21
2773.885740973412
 72
     1
 10
1008.690183239564
 20
2773.885740973412
 11
1031.559382789965
 21
2773.885740973412
 72
     1
 10
1031.559382789965
 20
2773.885740973412
 11
1044.856920325366
 21
2773.885740973412
 72
     1
 10
1044.856920325366
 20
2773.885740973412
 11
1058.153339839263
 21
2773.885740973412
 72
     3
 10
1058.153339839263
 20
2780.905740973413
 11
0.0
 21
-7.020000000000002
 40
1.0
 50
0.0
 51
90.0
 73
     1
 72
     1
 10
1065.173339839263
 20
2780.905740973413
 11
1065.173339839263
 21
2838.865740973413
 72
     3
 10
1058.153339839263
 20
2838.865740973412
 11
7.019999999999977
 21
-0.000000000000016
 40
1.0
 50
0.0
 51
90.00000000000012
 73
     1
 72
     1
 10
1058.153339839263
 20
2845.885740973412
 11
1043.573339839264
 21
2845.885740973412
 97
        0
 92
        1
 93
       13
 72
     3
 10
838.1933398392638
 20
2838.865740973412
 11
-0.000000000000002
 21
7.020000000000011
 40
1.0
 50
0.0
 51
89.99999999999984
 73
     1
 72
     1
 10
831.1733398392638
 20
2838.865740973412
 11
831.1733398392638
 21
2780.905740973413
 72
     3
 10
838.1933398392638
 20
2780.905740973413
 11
-7.020000000000001
 21
0.000000000000002
 40
1.0
 50
0.0000000000002773
 51
90.00000000000001
 73
     1
 72
     1
 10
838.1933398392638
 20
2773.885740973412
 11
866.2733398392639
 21
2773.885740973412
 72
     1
 10
866.2733398392639
 20
2773.885740973412
 11
869.4233398392638
 21
2773.885740973412
 72
     1
 10
869.4233398392636
 20
2773.885740973412
 11
869.4233398392636
 21
2776.585740973413
 72
     1
 10
869.4233398392636
 20
2776.585740973413
 11
838.1933398392636
 21
2776.585740973413
 72
     3
 10
838.1933398392638
 20
2780.905740973413
 11
0.0
 21
-4.320000000000002
 40
1.0
 50
0.0
 51
90.0
 73
     0
 72
     1
 10
833.8733398392637
 20
2780.905740973413
 11
833.8733398392637
 21
2838.865740973413
 72
     3
 10
838.1933398392638
 20
2838.865740973412
 11
-4.319999999999998
 21
0.0
 40
1.0
 50
0.0000000000002036
 51
90.0
 73
     0
 72
     1
 10
838.1933398392638
 20
2843.185740973412
 11
852.7733398392637
 21
2843.185740973412
 72
     1
 10
852.7733398392637
 20
2843.185740973412
 11
852.7733398392637
 21
2845.885740973412
 72
     1
 10
852.7733398392637
 20
2845.885740973412
 11
838.1933398392638
 21
2845.885740973412
 97
        0
 75
     0
 76
     1
 52
90.0
 41
457.2
 77
     0
 78
     1
 53
135.0
 43
0.0
 44
0.0
 45
-40.41115254481119
 46
-40.41115254481119
 79
     0
 98
        1
 10
1911.173339839272
 20
2928.707068568499
  0
HATCH
  5
3CF
330
6C
100
AcDbEntity
  8
Kreskowanie (ISO)
100
AcDbHatch
 10
0.0
 20
0.0
 30
0.0
210
0.0
220
0.0
230
1.0
  2
ANSI31
 70
     0
 71
     0
 91
        2
 92
        1
 93
       15
 72
     1
 10
835.8533398392527
 20
3049.285740973412
 11
869.4233398392537
 21
3049.285740973412
 72
     1
 10
869.4233398392535
 20
3049.285740973412
 11
869.4233398392535
 21
3051.085740973412
 72
     1
 10
869.4233398392535
 20
3051.085740973412
 11
866.2733398392553
 21
3051.085740973412
 72
     1
 10
866.2733398392555
 20
3051.085740973412
 11
835.8533398392527
 21
3051.085740973412
 72
     3
 10
835.8533398392541
 20
3046.405740973412
 11
-0.0000000000014069
 21
4.68000000000001
 40
1.0
 50
0.0
 51
90.00000000000117
 73
     1
 72
     1
 10
831.1733398392542
 20
3046.405740973411
 11
831.1733398392533
 21
3030.565740973413
 72
     3
 10
835.8533398392534
 20
3030.565740973413
 11
-4.68000000000006
 21
-0.000000000000024
 40
1.0
 50
-0.0000000000001018
 51
89.99999999999969
 73
     1
 72
     1
 10
835.8533398392534
 20
3025.885740973413
 11
845.5733398392533
 21
3025.885740973413
 72
     1
 10
845.5733398392531
 20
3025.885740973413
 11
845.5733398392533
 21
3027.505740973412
 72
     1
 10
845.5733398392535
 20
3027.505740973412
 11
845.5733398392533
 21
3027.685740973412
 72
     1
 10
845.5733398392531
 20
3027.685740973412
 11
836.5733398392553
 21
3027.685740973412
 72
     1
 10
836.5733398392555
 20
3027.685740973412
 11
835.8533398392534
 21
3027.685740973412
 72
     3
 10
835.8533398392534
 20
3030.565740973413
 11
0.0000000000000639
 21
-2.880000000000059
 40
1.0
 50
0.0000000000038167
 51
90.0000000000006
 73
     0
 72
     1
 10
832.9733398392534
 20
3030.565740973413
 11
832.9733398392543
 21
3046.405740973411
 72
     3
 10
835.8533398392541
 20
3046.405740973412
 11
-2.880000000000002
 21
-0.0000000000015118
 40
1.0
 50
-0.0000000000001527
 51
90.00000000000207
 73
     0
 97
        0
 92
        1
 93
       27
 72
     3
 10
1045.283339839254
 20
3027.775740973412
 11
-1.889999999999993
 21
0.0
 40
1.0
 50
0.0
 51
25.20876529746033
 73
     1
 72
     3
 10
1045.283339839254
 20
3027.775740973412
 11
-1.709999999990142
 21
-0.8049844719208675
 40
1.0
 50
0.0
 51
154.7912347025399
 73
     1
 72
     1
 10
1047.173339839253
 20
3027.775740973412
 11
1047.17333983936
 21
3046.405740973304
 72
     3
 10
1042.493339839253
 20
3046.405740973412
 11
4.68
 21
-0.000000000108091
 40
1.0
 50
0.0
 51
90.00000000130922
 73
     1
 72
     1
 10
1042.493339839255
 20
3051.085740973412
 11
911.2733398392554
 21
3051.085740973412
 72
     1
 10
911.2733398392554
 20
3051.085740973412
 11
908.1233398392535
 21
3051.085740973412
 72
     1
 10
908.1233398392535
 20
3051.085740973412
 11
908.1233398392535
 21
3049.285740973412
 72
     1
 10
908.1233398392535
 20
3049.285740973412
 11
1011.173339839263
 21
3049.285740973412
 72
     1
 10
1011.173339839264
 20
3049.285740973412
 11
1041.773339839263
 21
3049.285740973412
 72
     1
 10
1041.773339839263
 20
3049.285740973412
 11
1042.493339839255
 21
3049.285740973412
 72
     3
 10
1042.493339839253
 20
3046.405740973412
 11
0.0000000000011511
 21
2.88
 40
1.0
 50
-0.0000000000025444
 51
90.00000000212745
 73
     0
 72
     1
 10
1045.373339839254
 20
3046.405740973304
 11
1045.373339839254
 21
3027.775740973412
 72
     3
 10
1045.283339839254
 20
3027.775740973412
 11
0.0900000000000001
 21
-0.000000000000004
 40
1.0
 50
0.0000000000076333
 51
179.9999999999974
 73
     0
 72
     1
 10
1045.193339839253
 20
3027.775740973412
 11
1045.193339839253
 21
3044.425740973413
 72
     3
 10
1040.513339839254
 20
3044.425740973412
 11
4.680000000000001
 21
0.0
 40
1.0
 50
0.0
 51
74.38150172422294
 73
     1
 72
     3
 10
1040.513339839254
 20
3044.425740973412
 11
1.260000000010073
 21
4.507194249194784
 40
1.0
 50
0.0
 51
15.61849827577507
 73
     1
 72
     1
 10
1040.513339839254
 20
3049.105740973412
 11
1011.173339839263
 21
3049.105740973412
 72
     1
 10
1011.173339839264
 20
3049.105740973412
 11
1010.993339839254
 21
3049.105740973412
 72
     1
 10
1010.993339839253
 20
3049.105740973412
 11
1010.993339839254
 21
3047.305740973412
 72
     1
 10
1010.993339839254
 20
3047.305740973412
 11
1011.173339839264
 21
3047.305740973412
 72
     1
 10
1011.173339839264
 20
3047.305740973412
 11
1037.273339839255
 21
3047.305740973412
 72
     1
 10
1037.273339839255
 20
3047.305740973412
 11
1039.973339839255
 21
3047.305740973412
 72
     1
 10
1039.973339839255
 20
3047.305740973412
 11
1040.513339839254
 21
3047.305740973412
 72
     3
 10
1040.513339839254
 20
3044.425740973412
 11
0.0000000000001799
 21
2.879999999999987
 40
1.0
 50
-0.0000000000010178
 51
25.94447977258746
 73
     0
 72
     3
 10
1040.513339839254
 20
3044.425740973412
 11
1.260000000010076
 21
2.589749022583966
 40
1.0
 50
-0.0000000000021373
 51
64.0555202274071
 73
     0
 72
     1
 10
1043.393339839254
 20
3044.425740973412
 11
1043.393339839254
 21
3043.885740973412
 72
     1
 10
1043.393339839254
 20
3043.885740973412
 11
1043.393339839254
 21
3027.775740973412
 97
        0
 75
     0
 76
     1
 52
15.0
 41
457.2
 77
     0
 78
     1
 53
60.0
 43
0.0
 44
0.0
 45
-49.49335182628066
 46
28.57500000000001
 79
     0
 98
        1
 10
1911.173339839272
 20
2928.707068568499
  0
HATCH
  5
3F4
330
6C
100
AcDbEntity
  8
Kreskowanie (ISO)
100
AcDbHatch
 10
0.0
 20
0.0
 30
0.0
210
0.0
220
0.0
230
1.0
  2
ANSI31
 70
     0
 71
     0
 91
        2
 92
        1
 93
       15
 72
     3
 10
2986.493339839234
 20
3030.565740973413
 11
-0.0000000000006076
 21
-4.680000000000016
 40
1.0
 50
0.0
 51
90.00000000000762
 73
     1
 72
     1
 10
2991.173339839234
 20
3030.565740973413
 11
2991.173339839233
 21
3046.40574097341
 72
     3
 10
2986.493339839233
 20
3046.405740973412
 11
4.679999999999997
 21
-0.000000000002
 40
1.0
 50
0.000000000000019
 51
90.00000000000724
 73
     1
 72
     1
 10
2986.493339839235
 20
3051.085740973412
 11
2956.073339839233
 21
3051.085740973412
 72
     1
 10
2956.073339839233
 20
3051.085740973412
 11
2952.923339839233
 21
3051.085740973412
 72
     1
 10
2952.923339839232
 20
3051.085740973412
 11
2952.923339839232
 21
3049.285740973412
 72
     1
 10
2952.923339839232
 20
3049.285740973412
 11
2986.493339839234
 21
3049.285740973412
 72
     3
 10
2986.493339839233
 20
3046.405740973412
 11
0.0000000000013749
 21
2.880000000000016
 40
1.0
 50
0.0000000000006107
 51
90.00000000001209
 73
     0
 72
     1
 10
2989.373339839233
 20
3046.40574097341
 11
2989.373339839233
 21
3030.565740973412
 72
     3
 10
2986.493339839234
 20
3030.565740973413
 11
2.880000000000002
 21
0.0000000000000239
 40
1.0
 50
0.0000000000001527
 51
90.00000000001321
 73
     0
 72
     1
 10
2986.493339839233
 20
3027.685740973412
 11
2985.773339839234
 21
3027.685740973412
 72
     1
 10
2985.773339839234
 20
3027.685740973412
 11
2976.773339839234
 21
3027.685740973412
 72
     1
 10
2976.773339839234
 20
3027.685740973412
 11
2976.773339839234
 21
3027.505740973408
 72
     1
 10
2976.773339839234
 20
3027.505740973408
 11
2976.773339839234
 21
3025.885740973412
 72
     1
 10
2976.773339839234
 20
3025.885740973413
 11
2986.493339839233
 21
3025.885740973413
 97
        0
 92
        1
 93
       21
 72
     1
 10
2811.353339839234
 20
3049.105740973412
 11
2781.833339839233
 21
3049.105740973411
 72
     3
 10
2781.833339839234
 20
3044.425740973412
 11
-0.0000000000009752
 21
4.68
 40
1.0
 50
0.0000000000006107
 51
89.99999999998806
 73
     1
 72
     1
 10
2777.153339839234
 20
3044.425740973412
 11
2777.153339839234
 21
3027.775740973412
 72
     3
 10
2777.063339839234
 20
3027.775740973412
 11
0.0900000000000001
 21
-0.000000000000004
 40
1.0
 50
-0.0000000000025444
 51
179.9999999999974
 73
     0
 72
     1
 10
2776.973339839234
 20
3027.775740973412
 11
2776.973339839214
 21
3046.405740973392
 72
     3
 10
2779.853339839233
 20
3046.405740973412
 11
-2.880000000000002
 21
-0.0000000000209642
 40
1.0
 50
-0.0000000000002036
 51
90.00000000039417
 73
     0
 72
     1
 10
2779.853339839232
 20
3049.285740973412
 11
2914.223339839233
 21
3049.285740973412
 72
     1
 10
2914.223339839233
 20
3049.285740973412
 11
2914.223339839233
 21
3051.085740973412
 72
     1
 10
2914.223339839233
 20
3051.085740973412
 11
2911.073339839233
 21
3051.085740973412
 72
     1
 10
2911.073339839232
 20
3051.085740973412
 11
2779.853339839232
 21
3051.085740973412
 72
     3
 10
2779.853339839233
 20
3046.405740973412
 11
-0.00000000000115
 21
4.68
 40
1.0
 50
0.0000000000000129
 51
90.0000000002427
 73
     1
 72
     1
 10
2775.173339839234
 20
3046.405740973392
 11
2775.173339839234
 21
3027.775740973412
 72
     3
 10
2777.063339839234
 20
3027.775740973412
 11
-1.889999999999998
 21
0.0
 40
1.0
 50
0.0
 51
154.7912347060445
 73
     1
 72
     3
 10
2777.063339839234
 20
3027.775740973412
 11
1.710000000039366
 21
-0.8049844718162711
 40
1.0
 50
0.000000000000178
 51
25.20876529395563
 73
     1
 72
     1
 10
2778.953339839234
 20
3027.775740973412
 11
2778.953339839234
 21
3043.885740973415
 72
     1
 10
2778.953339839234
 20
3043.885740973415
 11
2778.953339839234
 21
3044.425740973413
 72
     3
 10
2781.833339839234
 20
3044.425740973412
 11
-2.88
 21
0.0
 40
1.0
 50
0.0000000000003053
 51
89.99999999997966
 73
     0
 72
     1
 10
2781.833339839233
 20
3047.305740973412
 11
2782.373339839234
 21
3047.305740973412
 72
     1
 10
2782.373339839234
 20
3047.305740973412
 11
2785.073339839234
 21
3047.305740973412
 72
     1
 10
2785.073339839234
 20
3047.305740973412
 11
2811.353339839234
 21
3047.305740973412
 72
     1
 10
2811.353339839234
 20
3047.305740973412
 11
2811.353339839234
 21
3049.105740973412
 97
        0
 75
     0
 76
     1
 52
75.0
 41
457.2
 77
     0
 78
     1
 53
120.0
 43
0.0
 44
0.0
 45
-49.49335182628066
 46
-28.575
 79
     0
 98
        1
 10
1911.173339839272
 20
2928.707068568499
  0
HATCH
  5
405
330
6C
100
AcDbEntity
  8
Kreskowanie (ISO)
100
AcDbHatch
 10
0.0
 20
0.0
 30
0.0
210
0.0
220
0.0
230
1.0
  2
ANSI31
 70
     0
 71
     0
 91
        2
 92
        1
 93
        7
 72
     1
 10
2943.473339839234
 20
3030.205740973408
 11
2943.473339839234
 21
3027.505740973408
 72
     1
 10
2943.473339839234
 20
3027.505740973408
 11
2976.773339839234
 21
3027.505740973408
 72
     1
 10
2976.773339839234
 20
3027.505740973408
 11
2985.773339839234
 21
3027.505740973408
 72
     1
 10
2985.773339839234
 20
3027.505740973408
 11
2985.773339839234
 21
3027.685740973411
 72
     1
 10
2985.773339839234
 20
3027.685740973411
 11
2985.773339839234
 21
3030.205740973408
 72
     1
 10
2985.773339839234
 20
3030.205740973408
 11
2946.880879957527
 21
3030.205740973408
 72
     1
 10
2946.880879957527
 20
3030.205740973408
 11
2943.473339839234
 21
3030.205740973408
 97
        0
 92
        1
 93
        9
 72
     1
 10
2785.073339839234
 20
3032.905740973409
 11
2785.073339839234
 21
3047.305740973409
 72
     1
 10
2785.073339839234
 20
3047.305740973409
 11
2782.373339839234
 21
3047.305740973409
 72
     1
 10
2782.373339839234
 20
3047.305740973409
 11
2782.373339839234
 21
3032.905740973408
 72
     3
 10
2787.773339839234
 20
3032.905740973409
 11
-5.400000000000012
 21
0.0000000000000085
 40
1.0
 50
0.0000000000000905
 51
90.00000000000007
 73
     1
 72
     1
 10
2787.773339839234
 20
3027.505740973408
 11
2923.673339839234
 21
3027.505740973408
 72
     1
 10
2923.673339839234
 20
3027.505740973408
 11
2923.673339839234
 21
3030.205740973408
 72
     1
 10
2923.673339839234
 20
3030.205740973408
 11
2920.253339839233
 21
3030.205740973408
 72
     1
 10
2920.253339839233
 20
3030.205740973408
 11
2787.773339839234
 21
3030.205740973409
 72
     3
 10
2787.773339839234
 20
3032.905740973409
 11
0.0000000000000262
 21
-2.699999999999984
 40
1.0
 50
0.0000000000005598
 51
90.0000000000009
 73
     0
 97
        0
 75
     0
 76
     1
 52
-15.0
 41
457.2
 77
     0
 78
     1
 53
30.0
 43
0.0
 44
0.0
 45
-28.575
 46
49.49335182628066
 79
     0
 98
        1
 10
1911.173339839272
 20
2928.707068568499
  0
HATCH
  5
418
330
6C
100
AcDbEntity
  8
Kreskowanie (ISO)
100
AcDbHatch
 10
0.0
 20
0.0
 30
0.0
210
0.0
220
0.0
230
1.0
  2
ANSI31
 70
     0
 71
     0
 91
        2
 92
        1
 93
        7
 72
     1
 10
878.8733398392555
 20
3027.505740973412
 11
878.8733398392555
 21
3030.205740973413
 72
     1
 10
878.8733398392555
 20
3030.205740973413
 11
875.4533398392556
 21
3030.205740973413
 72
     1
 10
875.4533398392556
 20
3030.205740973413
 11
836.5733398392555
 21
3030.205740973413
 72
     1
 10
836.5733398392555
 20
3030.205740973412
 11
836.5733398392553
 21
3027.685740973412
 72
     1
 10
836.5733398392553
 20
3027.685740973412
 11
836.5733398392555
 21
3027.505740973412
 72
     1
 10
836.5733398392555
 20
3027.505740973412
 11
845.5733398392533
 21
3027.505740973412
 72
     1
 10
845.5733398392531
 20
3027.505740973412
 11
878.8733398392555
 21
3027.505740973412
 97
        0
 92
        1
 93
       11
 72
     1
 10
1037.273339839255
 20
3047.305740973412
 11
1037.273339839255
 21
3032.905740973412
 72
     3
 10
1034.573339839255
 20
3032.905740973412
 11
2.699999999999974
 21
0.0000000000000247
 40
1.0
 50
0.0000000000002036
 51
90.00000000000049
 73
     0
 72
     1
 10
1034.573339839255
 20
3030.205740973413
 11
1011.173339839263
 21
3030.205740973413
 72
     1
 10
1011.173339839264
 20
3030.205740973413
 11
902.0808799575496
 21
3030.205740973413
 72
     1
 10
902.0808799575496
 20
3030.205740973413
 11
898.6733398392551
 21
3030.205740973413
 72
     1
 10
898.6733398392553
 20
3030.205740973413
 11
898.6733398392553
 21
3027.505740973413
 72
     1
 10
898.6733398392555
 20
3027.505740973412
 11
1011.173339839264
 21
3027.505740973413
 72
     1
 10
1011.173339839264
 20
3027.505740973412
 11
1034.573339839255
 21
3027.505740973412
 72
     3
 10
1034.573339839255
 20
3032.905740973412
 11
0.0000000000000115
 21
-5.400000000000011
 40
1.0
 50
0.0
 51
90.00000000000005
 73
     1
 72
     1
 10
1039.973339839255
 20
3032.905740973412
 11
1039.973339839255
 21
3047.305740973413
 72
     1
 10
1039.973339839255
 20
3047.305740973412
 11
1037.273339839255
 21
3047.305740973412
 97
        0
 75
     0
 76
     1
 52
105.0
 41
457.2
 77
     0
 78
     1
 53
150.0
 43
0.0
 44
0.0
 45
-28.575
 46
-49.49335182628068
 79
     0
 98
        1
 10
1911.173339839272
 20
2928.707068568499
  0
HATCH
  5
41F
330
6C
100
AcDbEntity
  8
Kreskowanie (ISO)
100
AcDbHatch
 10
0.0
 20
0.0
 30
0.0
210
0.0
220
0.0
230
1.0
  2
ANSI31
 70
     0
 71
     0
 91
        1
 92
        1
 93
        6
 72
     1
 10
866.2733398392555
 20
3051.085740973412
 11
869.4233398392537
 21
3051.085740973412
 72
     1
 10
869.4233398392535
 20
3051.085740973412
 11
908.1233398392537
 21
3051.085740973412
 72
     1
 10
908.1233398392537
 20
3051.085740973412
 11
911.2733398392554
 21
3051.085740973412
 72
     3
 10
907.6733398392557
 20
3051.085740973412
 11
3.600000000000003
 21
0.0000000000002558
 40
1.0
 50
0.0
 51
89.99999999999593
 73
     1
 72
     1
 10
907.6733398392557
 20
3054.685740973412
 11
869.8733398392555
 21
3054.685740973412
 72
     3
 10
869.8733398392555
 20
3051.085740973412
 11
-0.000000000000008
 21
3.600000000000003
 40
1.0
 50
0.0
 51
89.99999999999603
 73
     1
 97
        0
 75
     0
 76
     1
 52
0.0
 41
457.2
 77
     0
 78
     1
 53
45.0
 43
0.0
 44
0.0
 45
-40.41115254481119
 46
40.41115254481119
 79
     0
 98
        1
 10
1911.173339839272
 20
2928.707068568499
  0
HATCH
  5
426
330
6C
100
AcDbEntity
  8
Kreskowanie (ISO)
100
AcDbHatch
 10
0.0
 20
0.0
 30
0.0
210
0.0
220
0.0
230
1.0
  2
ANSI31
 70
     0
 71
     0
 91
        1
 92
        1
 93
        6
 72
     1
 10
2911.073339839232
 20
3051.085740973412
 11
2914.223339839232
 21
3051.085740973412
 72
     1
 10
2914.223339839232
 20
3051.085740973411
 11
2952.923339839232
 21
3051.085740973411
 72
     1
 10
2952.923339839232
 20
3051.085740973411
 11
2956.073339839233
 21
3051.085740973412
 72
     3
 10
2952.473339839233
 20
3051.085740973411
 11
3.600000000000003
 21
0.0000000000002558
 40
1.0
 50
0.0
 51
89.99999999999593
 73
     1
 72
     1
 10
2952.473339839233
 20
3054.685740973411
 11
2914.673339839233
 21
3054.685740973411
 72
     3
 10
2914.673339839233
 20
3051.085740973411
 11
-0.000000000000008
 21
3.600000000000003
 40
1.0
 50
0.0
 51
89.99999999999582
 73
     1
 97
        0
 75
     0
 76
     1
 52
90.0
 41
457.2
 77
     0
 78
     1
 53
135.0
 43
0.0
 44
0.0
 45
-40.41115254481119
 46
-40.41115254481119
 79
     0
 98
        1
 10
1911.173339839272
 20
2928.707068568499
  0
HATCH
  5
445
330
6C
100
AcDbEntity
  8
Kreskowanie (ISO)
100
AcDbHatch
 10
0.0
 20
0.0
 30
0.0
210
0.0
220
0.0
230
1.0
  2
ANSI31
 70
     0
 71
     0
 91
        2
 92
        1
 93
       13
 72
     3
 10
2984.153339839273
 20
2780.905740973413
 11
0.0
 21
-7.020000000000002
 40
1.0
 50
0.0
 51
90.0
 73
     1
 72
     1
 10
2991.173339839273
 20
2780.905740973413
 11
2991.173339839273
 21
2838.865740973413
 72
     3
 10
2984.153339839273
 20
2838.865740973412
 11
7.019999999999977
 21
-0.000000000000016
 40
1.0
 50
0.0
 51
90.00000000000012
 73
     1
 72
     1
 10
2984.153339839273
 20
2845.885740973412
 11
2969.573339839273
 21
2845.885740973412
 72
     1
 10
2969.573339839273
 20
2845.885740973412
 11
2969.573339839273
 21
2843.185740973412
 72
     1
 10
2969.573339839273
 20
2843.185740973412
 11
2984.153339839273
 21
2843.185740973412
 72
     3
 10
2984.153339839273
 20
2838.865740973412
 11
-0.000000000000032
 21
4.319999999999996
 40
1.0
 50
0.0000000000021373
 51
90.0000000000006
 73
     0
 72
     1
 10
2988.473339839273
 20
2838.865740973412
 11
2988.473339839273
 21
2780.905740973413
 72
     3
 10
2984.153339839273
 20
2780.905740973413
 11
4.319999999999971
 21
0.000000000000022
 40
1.0
 50
0.0000000000003053
 51
90.0000000000003
 73
     0
 72
     1
 10
2984.153339839273
 20
2776.585740973413
 11
2952.923339839273
 21
2776.585740973413
 72
     1
 10
2952.923339839273
 20
2776.585740973413
 11
2952.923339839273
 21
2773.885740973413
 72
     1
 10
2952.923339839273
 20
2773.885740973412
 11
2956.073339839273
 21
2773.885740973412
 72
     1
 10
2956.073339839273
 20
2773.885740973412
 11
2984.153339839273
 21
2773.885740973412
 97
        0
 92
        1
 93
       17
 72
     1
 10
2778.773339839273
 20
2843.185740973412
 11
2778.773339839273
 21
2845.885740973412
 72
     1
 10
2778.773339839273
 20
2845.885740973412
 11
2764.193339839273
 21
2845.885740973412
 72
     3
 10
2764.193339839273
 20
2838.865740973412
 11
-0.000000000000002
 21
7.020000000000011
 40
1.0
 50
0.0
 51
89.99999999999984
 73
     1
 72
     1
 10
2757.173339839273
 20
2838.865740973412
 11
2757.173339839273
 21
2780.905740973413
 72
     3
 10
2764.193339839273
 20
2780.905740973413
 11
-7.020000000000001
 21
0.000000000000002
 40
1.0
 50
0.0000000000002773
 51
90.00000000000001
 73
     1
 72
     1
 10
2764.193339839273
 20
2773.885740973412
 11
2777.48975935318
 21
2773.885740973412
 72
     1
 10
2777.48975935318
 20
2773.885740973412
 11
2790.787296888554
 21
2773.885740973412
 72
     1
 10
2790.787296888554
 20
2773.885740973412
 11
2813.656496438986
 21
2773.885740973412
 72
     1
 10
2813.656496438986
 20
2773.885740973412
 11
2825.169408699381
 21
2773.885740973412
 72
     1
 10
2825.169408699381
 20
2773.885740973412
 11
2911.073339839272
 21
2773.885740973412
 72
     1
 10
2911.073339839273
 20
2773.885740973412
 11
2914.223339839273
 21
2773.885740973412
 72
     1
 10
2914.223339839273
 20
2773.885740973412
 11
2914.223339839273
 21
2776.585740973413
 72
     1
 10
2914.223339839273
 20
2776.585740973413
 11
2764.193339839273
 21
2776.585740973413
 72
     3
 10
2764.193339839273
 20
2780.905740973413
 11
0.0
 21
-4.320000000000002
 40
1.0
 50
0.0
 51
90.0
 73
     0
 72
     1
 10
2759.873339839273
 20
2780.905740973413
 11
2759.873339839273
 21
2838.865740973413
 72
     3
 10
2764.193339839273
 20
2838.865740973412
 11
-4.319999999999998
 21
0.0
 40
1.0
 50
0.0000000000002036
 51
90.0
 73
     0
 72
     1
 10
2764.193339839273
 20
2843.185740973412
 11
2778.773339839273
 21
2843.185740973412
 97
        0
 75
     0
 76
     1
 52
15.0
 41
457.2
 77
     0
 78
     1
 53
60.0
 43
0.0
 44
0.0
 45
-49.49335182628066
 46
28.57500000000001
 79
     0
 98
        1
 10
1911.173339839272
 20
2928.707068568499
  0
HATCH
  5
44C
330
6C
100
AcDbEntity
  8
Kreskowanie (ISO)
100
AcDbHatch
 10
0.0
 20
0.0
 30
0.0
210
0.0
220
0.0
230
1.0
  2
ANSI31
 70
     0
 71
     0
 91
        1
 92
        1
 93
        6
 72
     1
 10
2956.073339839273
 20
2773.885740973412
 11
2952.923339839273
 21
2773.885740973413
 72
     1
 10
2952.923339839273
 20
2773.885740973413
 11
2914.223339839273
 21
2773.885740973413
 72
     1
 10
2914.223339839273
 20
2773.885740973413
 11
2911.073339839273
 21
2773.885740973412
 72
     3
 10
2914.673339839273
 20
2773.885740973412
 11
-3.600000000000003
 21
-0.0000000000001119
 40
1.0
 50
0.0
 51
89.99999999999822
 73
     1
 72
     1
 10
2914.673339839273
 20
2770.285740973413
 11
2952.473339839272
 21
2770.285740973413
 72
     3
 10
2952.473339839272
 20
2773.885740973412
 11
0.000000000000004
 21
-3.599999999999987
 40
1.0
 50
0.0000000000019719
 51
89.99999999999841
 73
     1
 97
        0
 75
     0
 76
     1
 52
75.0
 41
457.2
 77
     0
 78
     1
 53
120.0
 43
0.0
 44
0.0
 45
-49.49335182628066
 46
-28.575
 79
     0
 98
        1
 10
1911.173339839272
 20
2928.707068568499
  0
HATCH
  5
453
330
6C
100
AcDbEntity
  8
Kreskowanie (ISO)
100
AcDbHatch
 10
0.0
 20
0.0
 30
0.0
210
0.0
220
0.0
230
1.0
  2
ANSI31
 70
     0
 71
     0
 91
        1
 92
        1
 93
        6
 72
     1
 10
911.2733398392638
 20
2773.885740973412
 11
908.1233398392637
 21
2773.885740973413
 72
     1
 10
908.1233398392637
 20
2773.885740973413
 11
869.4233398392636
 21
2773.885740973413
 72
     1
 10
869.4233398392636
 20
2773.885740973413
 11
866.2733398392637
 21
2773.885740973412
 72
     3
 10
869.8733398392636
 20
2773.885740973412
 11
-3.600000000000003
 21
-0.0000000000001119
 40
1.0
 50
0.0
 51
89.99999999999822
 73
     1
 72
     1
 10
869.8733398392636
 20
2770.285740973413
 11
907.6733398392638
 21
2770.285740973413
 72
     3
 10
907.6733398392638
 20
2773.885740973412
 11
0.000000000000004
 21
-3.599999999999987
 40
1.0
 50
0.0000000000019719
 51
89.99999999999841
 73
     1
 97
        0
 75
     0
 76
     1
 52
-15.0
 41
457.2
 77
     0
 78
     1
 53
30.0
 43
0.0
 44
0.0
 45
-28.575
 46
49.49335182628066
 79
     0
 98
        1
 10
1911.173339839272
 20
2928.707068568499
  0
HATCH
  5
47C
330
6C
100
AcDbEntity
  8
Kreskowanie (ISO)
100
AcDbHatch
 10
0.0
 20
0.0
 30
0.0
210
0.0
220
0.0
230
1.0
  2
ANSI31
 70
     0
 71
     0
 91
        1
 92
        1
 93
       40
 72
     3
 10
978.9173398392666
 20
2633.989740973412
 11
-0.0000000000012844
 21
-2.303999999999997
 40
1.0
 50
337.9756871629886
 51
360.0000000000002
 73
     1
 72
     1
 10
978.9173398392653
 20
2631.685740973412
 11
980.3573398392645
 21
2631.685740973412
 72
     1
 10
980.3573398392645
 20
2631.685740973412
 11
1012.613339839265
 21
2631.685740973412
 72
     1
 10
1012.613339839265
 20
2631.685740973412
 11
2809.733339839267
 21
2631.685740973408
 72
     1
 10
2809.733339839267
 20
2631.685740973408
 11
2841.989339839267
 21
2631.685740973408
 72
     1
 10
2841.989339839267
 20
2631.685740973408
 11
2843.429339839268
 21
2631.685740973408
 72
     3
 10
2843.429339839268
 20
2633.989740973407
 11
2.304000000000002
 21
0.0000000000001549
 40
1.0
 50
269.9999999999961
 51
359.9999999999993
 73
     1
 72
     1
 10
2845.733339839267
 20
2633.989740973407
 11
2845.733339839267
 21
2635.429740973406
 72
     1
 10
2845.733339839267
 20
2635.429740973406
 11
2845.733339839268
 21
2731.261740973407
 72
     1
 10
2845.733339839268
 20
2731.261740973407
 11
2845.733339839268
 21
2732.701740973408
 72
     3
 10
2843.429339839265
 20
2732.701740973406
 11
2.135865164286772
 21
0.864000000000907
 40
1.0
 50
337.9756871629908
 51
359.9999999999997
 73
     1
 72
     3
 10
2843.429339839268
 20
2732.701740973408
 11
-0.0000000000007619
 21
2.30399999999933
 40
1.0
 50
292.024312837016
 51
360.0000000000002
 73
     1
 72
     1
 10
2843.429339839267
 20
2735.005740973408
 11
2841.989339839267
 21
2735.005740973408
 72
     1
 10
2841.989339839267
 20
2735.005740973408
 11
2784.533339839267
 21
2735.005740973408
 72
     1
 10
2784.533339839267
 20
2735.005740973408
 11
2784.173339839268
 21
2735.005740973408
 72
     1
 10
2784.173339839267
 20
2735.005740973408
 11
2784.173339839267
 21
2736.445740973407
 72
     1
 10
2784.173339839267
 20
2736.445740973408
 11
2829.173339839268
 21
2736.445740973408
 72
     1
 10
2829.173339839268
 20
2736.445740973407
 11
2841.773339839266
 21
2736.445740973407
 72
     1
 10
2841.773339839266
 20
2736.445740973407
 11
2843.429339839267
 21
2736.445740973407
 72
     3
 10
2843.429339839268
 20
2732.701740973408
 11
3.74399999999946
 21
0.0000000000000231
 40
1.0
 50
269.9999999999886
 51
359.9999999999994
 73
     0
 72
     1
 10
2847.173339839267
 20
2732.701740973408
 11
2847.173339839267
 21
2633.989740973407
 72
     3
 10
2843.429339839267
 20
2633.989740973408
 11
0.0000000000002469
 21
-3.744000000000119
 40
1.0
 50
270.0000000000057
 51
360.0
 73
     0
 72
     1
 10
2843.429339839268
 20
2630.245740973407
 11
978.9173398392657
 21
2630.245740973412
 72
     3
 10
978.9173398392666
 20
2633.989740973412
 11
-3.744000000000002
 21
0.0000000000000074
 40
1.0
 50
270.0000000000194
 51
360.0
 73
     0
 72
     1
 10
975.1733398392659
 20
2633.989740973412
 11
975.1733398392659
 21
2644.285740973412
 72
     1
 10
975.1733398392659
 20
2644.285740973412
 11
975.1733398392659
 21
2716.285740973412
 72
     1
 10
975.1733398392659
 20
2716.285740973412
 11
975.1733398392662
 21
2732.701740973412
 72
     3
 10
978.9173398392662
 20
2732.701740973412
 11
-0.0000000014907666
 21
3.744000000000019
 40
1.0
 50
270.0000000228142
 51
359.9999999999998
 73
     0
 72
     1
 10
978.9173398377753
 20
2736.445740971921
 11
980.5733398392661
 21
2736.445740973412
 72
     1
 10
980.5733398392661
 20
2736.445740973412
 11
993.1733398392672
 21
2736.445740973412
 72
     1
 10
993.1733398392672
 20
2736.445740973412
 11
1038.173339839266
 21
2736.445740973412
 72
     1
 10
1038.173339839266
 20
2736.445740973412
 11
1038.173339839266
 21
2735.005740973412
 72
     1
 10
1038.173339839266
 20
2735.005740973412
 11
1037.813339839265
 21
2735.005740973412
 72
     1
 10
1037.813339839265
 20
2735.005740973412
 11
980.3573398392645
 21
2735.005740973412
 72
     1
 10
980.3573398392645
 20
2735.005740973412
 11
978.9173398392669
 21
2735.005740973412
 72
     3
 10
978.9173398392666
 20
2732.701740973412
 11
-2.304000000000322
 21
0.0000000000000055
 40
1.0
 50
269.9999999999906
 51
359.9999999999993
 73
     1
 72
     1
 10
976.6133398392661
 20
2732.701740973412
 11
976.6133398392661
 21
2731.261740973412
 72
     1
 10
976.6133398392661
 20
2731.261740973412
 11
976.6133398392659
 21
2635.429740973412
 72
     1
 10
976.6133398392657
 20
2635.429740973412
 11
976.6133398392666
 21
2633.989740973412
 72
     3
 10
978.9173398392666
 20
2633.989740973412
 11
-0.8640000000000258
 21
-2.135865164283554
 40
1.0
 50
292.0243128370427
 51
360.0
 73
     1
 97
        0
 75
     0
 76
     1
 52
105.0
 41
457.2
 77
     0
 78
     1
 53
150.0
 43
0.0
 44
0.0
 45
-28.575
 46
-49.49335182628068
 79
     0
 98
        1
 10
1911.173339839272
 20
2928.707068568499
  0
HATCH
  5
485
330
6C
100
AcDbEntity
  8
Kreskowanie (ISO)
100
AcDbHatch
 10
0.0
 20
0.0
 30
0.0
210
0.0
220
0.0
230
1.0
  2
ANSI31
 70
     0
 71
     0
 91
        1
 92
        1
 93
        8
 72
     1
 10
2829.173339839267
 20
2736.445740973408
 11
2829.173339839267
 21
2737.885740973408
 72
     1
 10
2829.173339839267
 20
2737.885740973407
 11
2760.786140850794
 21
2737.885740973407
 72
     1
 10
2760.786140850794
 20
2737.885740973407
 11
1061.560538827795
 21
2737.885740973411
 72
     1
 10
1061.560538827795
 20
2737.885740973411
 11
993.1733398392678
 21
2737.885740973411
 72
     1
 10
993.1733398392676
 20
2737.885740973412
 11
993.1733398392676
 21
2736.445740973412
 72
     1
 10
993.1733398392676
 20
2736.445740973412
 11
1038.173339839266
 21
2736.445740973412
 72
     1
 10
1038.173339839266
 20
2736.445740973412
 11
2784.173339839267
 21
2736.445740973408
 72
     1
 10
2784.173339839267
 20
2736.445740973408
 11
2829.173339839267
 21
2736.445740973408
 97
        0
 75
     0
 76
     1
 52
0.0
 41
457.2
 77
     0
 78
     1
 53
45.0
 43
0.0
 44
0.0
 45
-40.41115254481119
 46
40.41115254481119
 79
     0
 98
        1
 10
1911.173339839272
 20
2928.707068568499
  0
HATCH
  5
48A
330
6C
100
AcDbEntity
  8
Kreskowanie (ISO)
100
AcDbHatch
 10
0.0
 20
0.0
 30
0.0
210
0.0
220
0.0
230
1.0
  2
ANSI31
 70
     0
 71
     0
 91
        1
 92
        1
 93
        4
 72
     1
 10
964.3733398392638
 20
2644.285740973412
 11
975.1733398392639
 21
2644.285740973412
 72
     1
 10
975.1733398392639
 20
2644.285740973412
 11
975.1733398392637
 21
2716.285740973412
 72
     1
 10
975.1733398392637
 20
2716.285740973412
 11
964.3733398392637
 21
2716.285740973412
 72
     1
 10
964.3733398392637
 20
2716.285740973412
 11
964.3733398392637
 21
2644.285740973412
 97
        0
 75
     0
 76
     1
 52
90.0
 41
457.2
 77
     0
 78
     1
 53
135.0
 43
0.0
 44
0.0
 45
-40.41115254481119
 46
-40.41115254481119
 79
     0
 98
        1
 10
1911.173339839272
 20
2928.707068568499
  0
HATCH
  5
493
330
6C
100
AcDbEntity
  8
Kreskowanie (ISO)
100
AcDbHatch
 10
0.0
 20
0.0
 30
0.0
210
0.0
220
0.0
230
1.0
  2
ANSI31
 70
     0
 71
     0
 91
        1
 92
        1
 93
        8
 72
     1
 10
978.0533398392647
 20
2633.125740973412
 11
980.3573398392645
 21
2633.125740973412
 72
     1
 10
980.3573398392645
 20
2633.125740973412
 11
983.4533398392647
 21
2633.125740973412
 72
     1
 10
983.4533398392645
 20
2633.125740973412
 11
983.4533398392645
 21
2732.125740973412
 72
     1
 10
983.4533398392645
 20
2732.125740973412
 11
978.2214746749811
 21
2732.125740973412
 72
     1
 10
978.2214746749811
 20
2732.125740973412
 11
978.0533398392647
 21
2732.125740973412
 72
     1
 10
978.0533398392647
 20
2732.125740973412
 11
978.0533398392647
 21
2731.261740973412
 72
     1
 10
978.0533398392647
 20
2731.261740973412
 11
978.0533398392647
 21
2635.429740973413
 72
     1
 10
978.0533398392647
 20
2635.429740973412
 11
978.0533398392647
 21
2633.125740973412
 97
        0
 75
     0
 76
     1
 52
15.0
 41
457.2
 77
     0
 78
     1
 53
60.0
 43
0.0
 44
0.0
 45
-49.49335182628066
 46
28.57500000000001
 79
     0
 98
        1
 10
1911.173339839272
 20
2928.707068568499
  0
HATCH
  5
4A3
330
6C
100
AcDbEntity
  8
Kreskowanie (ISO)
100
AcDbHatch
 10
0.0
 20
0.0
 30
0.0
210
0.0
220
0.0
230
1.0
  2
ANSI31
 70
     0
 71
     0
 91
        1
 92
        1
 93
       15
 72
     1
 10
1012.613339839264
 20
2633.125740973412
 11
983.4533398392645
 21
2633.125740973412
 72
     1
 10
983.4533398392645
 20
2633.125740973412
 11
980.3573398392643
 21
2633.125740973412
 72
     3
 10
980.3573398392645
 20
2635.429740973412
 11
-0.0000000000000057
 21
-2.304000000000004
 40
1.0
 50
-0.0000000000001527
 51
89.99999999999984
 73
     0
 72
     1
 10
978.0533398392643
 20
2635.429740973412
 11
978.0533398392647
 21
2731.261740973412
 72
     3
 10
980.3573398392645
 20
2731.261740973412
 11
-2.30399999999988
 21
-0.0000000000000113
 40
1.0
 50
0.0000000000003053
 51
22.02431283704271
 73
     0
 72
     3
 10
980.3573398392645
 20
2731.261740973412
 11
-2.135865164283536
 21
0.863999999999925
 40
1.0
 50
-0.0000000000008142
 51
67.97568716295941
 73
     0
 72
     1
 10
980.3573398392645
 20
2733.565740973412
 11
1037.813339839264
 21
2733.565740973412
 72
     1
 10
1037.813339839265
 20
2733.565740973412
 11
1037.813339839265
 21
2735.005740973412
 72
     1
 10
1037.813339839265
 20
2735.005740973412
 11
980.3573398392646
 21
2735.005740973412
 72
     3
 10
980.3573398392645
 20
2731.261740973412
 11
0.0000000000000076
 21
3.744000000000019
 40
1.0
 50
0.0000000000001166
 51
89.99999999999962
 73
     1
 72
     1
 10
976.6133398392648
 20
2731.261740973412
 11
976.6133398392645
 21
2635.429740973413
 72
     3
 10
980.3573398392645
 20
2635.429740973412
 11
-3.744000000000009
 21
0.0000000000000091
 40
1.0
 50
0.0000000000001395
 51
52.02012755519308
 73
     1
 72
     3
 10
980.3573398392645
 20
2635.429740973412
 11
-2.303999999997723
 21
-2.951121820598143
 40
1.0
 50
0.0000000000001018
 51
37.97987244480778
 73
     1
 72
     1
 10
980.3573398392645
 20
2631.685740973412
 11
1012.613339839264
 21
2631.685740973412
 72
     1
 10
1012.613339839264
 20
2631.685740973412
 11
1012.613339839264
 21
2633.125740973412
 97
        0
 75
     0
 76
     1
 52
75.0
 41
457.2
 77
     0
 78
     1
 53
120.0
 43
0.0
 44
0.0
 45
-49.49335182628066
 46
-28.575
 79
     0
 98
        1
 10
1911.173339839272
 20
2928.707068568499
  0
HATCH
  5
4B1
330
6C
100
AcDbEntity
  8
Kreskowanie (ISO)
100
AcDbHatch
 10
0.0
 20
0.0
 30
0.0
210
0.0
220
0.0
230
1.0
  2
ANSI31
 70
     0
 71
     0
 91
        1
 92
        1
 93
       13
 72
     1
 10
2841.989339839267
 20
2633.125740973407
 11
2809.733339839267
 21
2633.125740973407
 72
     1
 10
2809.733339839267
 20
2633.125740973407
 11
2809.733339839267
 21
2631.685740973406
 72
     1
 10
2809.733339839267
 20
2631.685740973406
 11
2841.989339839267
 21
2631.685740973406
 72
     3
 10
2841.989339839267
 20
2635.429740973406
 11
-0.0000000000000093
 21
-3.744000000000004
 40
1.0
 50
0.0000000000001427
 51
90.00000000000012
 73
     1
 72
     1
 10
2845.733339839267
 20
2635.429740973406
 11
2845.733339839267
 21
2731.261740973407
 72
     3
 10
2841.989339839267
 20
2731.261740973407
 11
3.743999999999988
 21
-0.0000000000000253
 40
1.0
 50
0.0
 51
37.97987244487322
 73
     1
 72
     3
 10
2841.989339839267
 20
2731.261740973407
 11
2.951121820595509
 21
2.30400000000105
 40
1.0
 50
0.0
 51
52.02012755512729
 73
     1
 72
     1
 10
2841.989339839267
 20
2735.005740973406
 11
2784.533339839267
 21
2735.005740973406
 72
     1
 10
2784.533339839267
 20
2735.005740973406
 11
2784.533339839267
 21
2733.565740973407
 72
     1
 10
2784.533339839267
 20
2733.565740973407
 11
2841.989339839268
 21
2733.565740973407
 72
     3
 10
2841.989339839267
 20
2731.261740973407
 11
-0.0000000000000127
 21
2.304000000000002
 40
1.0
 50
0.0000000000003053
 51
90.00000000000111
 73
     0
 72
     1
 10
2844.293339839267
 20
2731.261740973407
 11
2844.293339839266
 21
2635.429740973406
 72
     3
 10
2841.989339839267
 20
2635.429740973406
 11
2.304000000000004
 21
-0.0000000000000032
 40
1.0
 50
-0.0000000000001018
 51
89.99999999999991
 73
     0
 97
        0
 75
     0
 76
     1
 52
-15.0
 41
457.2
 77
     0
 78
     1
 53
30.0
 43
0.0
 44
0.0
 45
-28.575
 46
49.49335182628066
 79
     0
 98
        1
 10
1911.173339839272
 20
2928.707068568499
  0
HATCH
  5
4B4
330
6C
100
AcDbEntity
  8
Kreskowanie (ISO)
100
AcDbHatch
 10
0.0
 20
0.0
 30
0.0
210
0.0
220
0.0
230
1.0
  2
ANSI31
 70
     0
 71
     0
 91
        2
 92
        1
 93
        1
 72
     3
 10
2524.973339839255
 20
2681.905740973408
 11
-18.0
 21
0.000000000000043
 40
1.0
 50
0.0
 51
360.0
 73
     1
 97
        0
 92
        0
 93
        1
 72
     3
 10
2524.973339839255
 20
2681.905740973408
 11
16.2
 21
-0.0000000000000387
 40
1.0
 50
0.0
 51
360.0
 73
     1
 97
        0
 75
     0
 76
     1
 52
105.0
 41
457.2
 77
     0
 78
     1
 53
150.0
 43
0.0
 44
0.0
 45
-28.575
 46
-49.49335182628068
 79
     0
 98
        1
 10
1911.173339839272
 20
2928.707068568499
  0
HATCH
  5
4B6
330
6C
100
AcDbEntity
  8
Kreskowanie (ISO)
100
AcDbHatch
 10
0.0
 20
0.0
 30
0.0
210
0.0
220
0.0
230
1.0
  2
ANSI31
 70
     0
 71
     0
 91
        1
 92
        1
 93
        1
 72
     3
 10
2524.973339839268
 20
2681.905740973408
 11
-5.784131462303164
 21
4.287636088428527
 40
1.0
 50
0.0
 51
360.0
 73
     1
 97
        0
 75
     0
 76
     1
 52
0.0
 41
457.2
 77
     0
 78
     1
 53
45.0
 43
0.0
 44
0.0
 45
-40.41115254481119
 46
40.41115254481119
 79
     0
 98
        1
 10
1911.173339839272
 20
2928.707068568499
  0
HATCH
  5
4D5
330
6C
100
AcDbEntity
  8
Kreskowanie (ISO)
100
AcDbHatch
 10
0.0
 20
0.0
 30
0.0
210
0.0
220
0.0
230
1.0
  2
ANSI31
 70
     0
 71
     0
 91
        3
 92
        1
 93
       18
 72
     1
 10
2761.040096383433
 20
2752.168482123981
 11
2760.786140850785
 21
2737.885740973406
 72
     3
 10
2795.339746566483
 20
2403.093895047696
 11
-34.55360571569953
 21
334.7918459257103
 40
1.0
 50
0.0
 51
13.82246857545419
 73
     0
 72
     1
 10
2841.773339839266
 20
2736.445740973406
 11
2842.027295371915
 21
2750.728482123981
 72
     3
 10
2841.667352265299
 20
2750.734882123981
 11
0.359943106615605
 21
-0.0063999999999692
 40
1.0
 50
0.000000000003664
 51
35.43195758404001
 73
     1
 72
     1
 10
2841.964345860809
 20
2750.938339255156
 11
2828.322760434488
 21
2770.851445671355
 72
     3
 10
2819.412952569184
 20
2764.747731736106
 11
8.909807865304495
 21
6.10371393524944
 40
1.0
 50
0.0000000000000795
 51
23.37795803621318
 73
     1
 72
     3
 10
2819.412952569184
 20
2764.747731736106
 11
5.756456130197996
 21
9.138009237306921
 40
1.0
 50
0.0000000000001166
 51
64.41745935473313
 73
     1
 72
     3
 10
2819.412952569184
 20
2764.747731736106
 11
-5.756456130198009
 21
9.138009237306881
 40
1.0
 50
0.0
 51
95.47478752302776
 73
     1
 72
     1
 10
2810.865838792282
 20
2758.145698255071
 11
2818.790171834341
 21
2747.886711185239
 72
     3
 10
2816.653393390116
 20
2746.23620281498
 11
2.136778444225351
 21
1.650508370258658
 40
1.0
 50
-0.0000000000005089
 51
131.2312285791316
 73
     0
 72
     3
 10
2795.323927885558
 20
2402.204234867214
 11
21.16239035308547
 21
341.3371421846111
 40
1.0
 50
0.0000000000000167
 51
5.058132162210258
 73
     1
 72
     3
 10
2786.238259309138
 20
2746.777001776095
 11
0.071168658835029
 21
-2.699061878134627
 40
1.0
 50
-0.0000000000311949
 51
131.2312285791295
 73
     0
 72
     1
 10
2784.161506987612
 20
2748.502429199963
 11
2792.445537406972
 21
2758.473222040634
 72
     3
 10
2784.138528120867
 20
2765.374931736106
 11
8.307009286104801
 21
-6.901709695471737
 40
1.0
 50
0.0000000000001855
 51
91.7233335001098
 73
     1
 72
     3
 10
2784.138528120867
 20
2765.374931736106
 11
6.648768767687253
 21
8.510809237306785
 40
1.0
 50
0.0
 51
75.99494859109059
 73
     1
 72
     3
 10
2784.138528120867
 20
2765.374931736106
 11
-6.648768767687436
 21
8.510809237306924
 40
1.0
 50
0.0
 51
15.5519228227741
 73
     1
 72
     1
 10
2775.451338776657
 20
2771.791530624758
 11
2761.110466511907
 21
2752.375968753603
 72
     3
 10
2761.400039490048
 20
2752.162082123981
 11
-0.2895729781402804
 21
0.2138866296217112
 40
1.0
 50
0.0000000000067173
 51
35.43195758405591
 73
     1
 97
        0
 92
        0
 93
        6
 72
     1
 10
2822.900330996903
 20
2747.571354104792
 11
2813.287521029071
 21
2760.016274408031
 72
     3
 10
2819.412952569184
 20
2764.747731736106
 11
-6.125431540112672
 21
-4.731457328074829
 40
1.0
 50
0.0000000000003562
 51
183.2702049139748
 73
     0
 72
     1
 10
2825.798314872652
 20
2769.122060056368
 11
2838.47102603911
 21
2750.623253784735
 72
     1
 10
2838.47102603911
 20
2750.623253784735
 11
2838.306737962109
 21
2741.383509907284
 72
     3
 10
2795.339746566476
 20
2403.093895047625
 11
42.96699139563359
 21
338.2896148596584
 40
1.0
 50
0.0
 51
2.442332003547455
 73
     1
 72
     3
 10
2818.626774108452
 20
2744.270337364274
 11
5.225118304118373
 21
-1.363135616131834
 40
1.0
 50
0.000000000003276
 51
52.30502029292395
 73
     1
 97
        0
 92
        0
 93
        6
 72
     3
 10
2784.138528120867
 20
2765.374931736106
 11
-6.225819030017007
 21
4.598562536867164
 40
1.0
 50
176.7297950860247
 51
360.0
 73
     1
 72
     1
 10
2777.91270909085
 20
2769.973494272973
 11
2764.618477674777
 21
2751.97493966464
 72
     1
 10
2764.618477674777
 20
2751.97493966464
 11
2764.454010014733
 21
2742.725095837438
 72
     3
 10
2795.339746566488
 20
2403.09389504763
 11
-16.41931426302821
 21
340.6371785219625
 40
1.0
 50
357.563490956345
 51
360.0
 73
     0
 72
     3
 10
2784.196239570463
 20
2744.882532505654
 11
-4.153504643052378
 21
3.450854847735864
 40
1.0
 50
307.9673022942253
 51
359.9999999999992
 73
     0
 72
     1
 10
2780.042734927411
 20
2748.33338735339
 11
2790.091884775909
 21
2760.428706454351
 97
        0
 75
     0
 76
     1
 52
90.0
 41
457.2
 77
     0
 78
     1
 53
135.0
 43
0.0
 44
0.0
 45
-40.41115254481119
 46
-40.41115254481119
 79
     0
 98
        1
 10
1911.173339839272
 20
2928.707068568499
  0
HATCH
  5
4F4
330
6C
100
AcDbEntity
  8
Kreskowanie (ISO)
100
AcDbHatch
 10
0.0
 20
0.0
 30
0.0
210
0.0
220
0.0
230
1.0
  2
ANSI31
 70
     0
 71
     0
 91
        3
 92
        1
 93
       18
 72
     3
 10
1060.946640188484
 20
2752.162082123991
 11
0.3599431066154289
 21
0.0063999999999826
 40
1.0
 50
0.0
 51
35.43195758405244
 73
     1
 72
     1
 10
1061.236213166625
 20
2752.375968753613
 11
1046.895340901875
 21
2771.791530624768
 72
     3
 10
1038.208151557665
 20
2765.374931736116
 11
8.687189344209604
 21
6.416598888651681
 40
1.0
 50
0.0
 51
15.55192282268575
 73
     1
 72
     3
 10
1038.208151557665
 20
2765.374931736116
 11
6.648768767700501
 21
8.510809237296436
 40
1.0
 50
0.0000000000002969
 51
75.99494859127005
 73
     1
 72
     3
 10
1038.208151557665
 20
2765.374931736116
 11
-6.648768767700669
 21
8.510809237296315
 40
1.0
 50
0.0000000000002014
 51
91.72333350001942
 73
     1
 72
     1
 10
1029.901142271561
 20
2758.473222040644
 11
1038.185172690921
 21
2748.502429199974
 72
     3
 10
1036.108420369395
 20
2746.777001776106
 11
2.076752321526212
 21
1.725427423867924
 40
1.0
 50
0.0000000000015267
 51
131.2312285791311
 73
     0
 72
     3
 10
1027.022751792972
 20
2402.204234867225
 11
9.014499917587237
 21
341.8737050307464
 40
1.0
 50
0.0
 51
5.058132162210409
 73
     1
 72
     3
 10
1005.693286288416
 20
2746.23620281499
 11
0.1670751514717283
 21
-2.694825763154401
 40
1.0
 50
-0.0000000000074298
 51
131.231228579134
 73
     0
 72
     1
 10
1003.556507844191
 20
2747.886711185249
 11
1011.48084088625
 21
2758.145698255082
 72
     3
 10
1002.933727109349
 20
2764.747731736117
 11
8.54711377690139
 21
-6.602033481034673
 40
1.0
 50
0.0000000000002544
 51
95.47478752292338
 73
     1
 72
     3
 10
1002.933727109349
 20
2764.747731736117
 11
5.756456130214665
 21
9.138009237296378
 40
1.0
 50
0.0
 51
64.41745935494289
 73
     1
 72
     3
 10
1002.933727109349
 20
2764.747731736117
 11
-5.756456130214821
 21
9.138009237296421
 40
1.0
 50
0.0000000000001961
 51
23.37795803610697
 73
     1
 72
     1
 10
994.0239192440445
 20
2770.851445671366
 11
980.3823338177231
 21
2750.938339255166
 72
     3
 10
980.6793274132333
 20
2750.734882123992
 11
-0.2969935955102799
 21
0.2034571311750153
 40
1.0
 50
0.0
 51
35.43195758403906
 73
     1
 72
     1
 10
980.3193843066178
 20
2750.728482123991
 11
980.5733398392662
 21
2736.445740973417
 72
     3
 10
1027.006933112047
 20
2403.093895047714
 11
-46.43359327278101
 21
333.3518459257027
 40
1.0
 50
0.0
 51
13.82246857545449
 73
     0
 72
     1
 10
1061.560538827748
 20
2737.885740973417
 11
1061.3065832951
 21
2752.168482123992
 97
        0
 92
        0
 93
        6
 72
     1
 10
1009.059158649461
 20
2760.016274408042
 11
999.4463486816293
 21
2747.571354104803
 72
     3
 10
1003.71990557008
 20
2744.270337364285
 11
-4.273556888450674
 21
3.30101674051734
 40
1.0
 50
0.0000000000001643
 51
52.30502029292328
 73
     1
 72
     3
 10
1027.006933112055
 20
2403.093895047637
 11
-28.51214584609363
 21
339.8133067005161
 40
1.0
 50
0.000000000000006
 51
2.442332003547752
 73
     1
 72
     1
 10
984.0399417164237
 20
2741.383509907295
 11
983.8756536394221
 21
2750.623253784746
 72
     1
 10
983.8756536394219
 20
2750.623253784746
 11
996.5483648058807
 21
2769.122060056379
 72
     3
 10
1002.933727109349
 20
2764.747731736117
 11
-6.385362303468209
 21
4.374328320262125
 40
1.0
 50
-0.0000000000001527
 51
183.2702049139752
 73
     0
 97
        0
 92
        0
 93
        6
 72
     3
 10
1038.208151557665
 20
2765.374931736116
 11
-5.953356655041798
 21
-4.946225281754723
 40
1.0
 50
176.7297950860253
 51
359.9999999999996
 73
     1
 72
     1
 10
1032.254794902624
 20
2760.428706454362
 11
1042.303944751121
 21
2748.333387353401
 72
     3
 10
1038.150440108069
 20
2744.882532505664
 11
5.275807267003294
 21
-1.151458936061184
 40
1.0
 50
307.9673022942257
 51
359.9999999999962
 73
     0
 72
     3
 10
1027.006933112045
 20
2403.093895047685
 11
30.88573655175393
 21
339.6312007897648
 40
1.0
 50
357.5634909563448
 51
360.0
 73
     0
 72
     1
 10
1057.892669663799
 20
2742.725095837449
 11
1057.728202003755
 21
2751.974939664651
 72
     1
 10
1057.728202003755
 20
2751.974939664651
 11
1044.433970587683
 21
2769.973494272984
 97
        0
 75
     0
 76
     1
 52
15.0
 41
457.2
 77
     0
 78
     1
 53
60.0
 43
0.0
 44
0.0
 45
-49.49335182628066
 46
28.57500000000001
 79
     0
 98
        1
 10
1911.173339839272
 20
2928.707068568499
  0
HATCH
  5
50F
330
6C
100
AcDbEntity
  8
Kreskowanie (ISO)
100
AcDbHatch
 10
0.0
 20
0.0
 30
0.0
210
0.0
220
0.0
230
1.0
  2
ANSI31
 70
     0
 71
     0
 91
        1
 92
        1
 93
       26
 72
     1
 10
978.0533398392671
 20
2733.565740973412
 11
978.053339839267
 21
2732.125740973412
 72
     1
 10
978.053339839267
 20
2732.125740973412
 11
978.053339839267
 21
2731.261740973412
 72
     1
 10
978.053339839267
 20
2731.261740973412
 11
978.0533398392668
 21
2635.429740973412
 72
     1
 10
978.0533398392668
 20
2635.429740973412
 11
978.0533398392668
 21
2633.125740973412
 72
     1
 10
978.0533398392668
 20
2633.125740973412
 11
978.0533398392668
 21
2632.478619152814
 72
     1
 10
978.0533398392668
 20
2632.478619152814
 11
978.0533398392668
 21
2631.853875809128
 72
     1
 10
978.0533398392668
 20
2631.853875809128
 11
978.0533398392668
 21
2631.685740973412
 72
     1
 10
978.0533398392668
 20
2631.685740973412
 11
978.9173398392652
 21
2631.685740973412
 72
     1
 10
978.9173398392653
 20
2631.685740973412
 11
980.3573398392645
 21
2631.685740973412
 72
     1
 10
980.3573398392645
 20
2631.685740973412
 11
1012.613339839264
 21
2631.685740973412
 72
     1
 10
1012.613339839264
 20
2631.685740973412
 11
2809.733339839267
 21
2631.685740973408
 72
     1
 10
2809.733339839267
 20
2631.685740973408
 11
2841.989339839267
 21
2631.685740973408
 72
     1
 10
2841.989339839267
 20
2631.685740973407
 11
2843.429339839268
 21
2631.685740973407
 72
     1
 10
2843.429339839268
 20
2631.685740973408
 11
2845.733339839267
 21
2631.685740973408
 72
     1
 10
2845.733339839267
 20
2631.685740973408
 11
2845.733339839267
 21
2633.989740973408
 72
     1
 10
2845.733339839267
 20
2633.989740973407
 11
2845.733339839267
 21
2635.429740973406
 72
     1
 10
2845.733339839267
 20
2635.429740973406
 11
2845.733339839267
 21
2731.261740973407
 72
     1
 10
2845.733339839267
 20
2731.261740973407
 11
2845.733339839267
 21
2732.701740973408
 72
     1
 10
2845.733339839267
 20
2732.701740973408
 11
2845.733339839267
 21
2733.565740973407
 72
     1
 10
2845.733339839267
 20
2733.565740973407
 11
2845.565205003551
 21
2733.565740973407
 72
     1
 10
2845.565205003551
 20
2733.565740973407
 11
2844.940461659863
 21
2733.565740973407
 72
     1
 10
2844.940461659863
 20
2733.565740973407
 11
2841.989339839268
 21
2733.565740973407
 72
     1
 10
2841.989339839267
 20
2733.565740973407
 11
2784.533339839267
 21
2733.565740973407
 72
     1
 10
2784.533339839267
 20
2733.565740973407
 11
1037.813339839265
 21
2733.565740973411
 72
     1
 10
1037.813339839265
 20
2733.565740973411
 11
980.3573398392648
 21
2733.565740973411
 72
     1
 10
980.3573398392648
 20
2733.565740973412
 11
978.0533398392671
 21
2733.565740973412
 97
        0
 75
     0
 76
     1
 52
75.0
 41
457.2
 77
     0
 78
     1
 53
120.0
 43
0.0
 44
0.0
 45
-49.49335182628066
 46
-28.575
 79
     0
 98
        1
 10
1911.173339839272
 20
2928.707068568499
  0
HATCH
  5
518
330
6C
100
AcDbEntity
  8
Kreskowanie (ISO)
100
AcDbHatch
 10
0.0
 20
0.0
 30
0.0
210
0.0
220
0.0
230
1.0
  2
ANSI31
 70
     0
 71
     0
 91
        1
 92
        1
 93
        8
 72
     1
 10
2778.773339839273
 20
2818.885740973415
 11
2780.573339839274
 21
2818.885740973415
 72
     1
 10
2780.573339839274
 20
2818.885740973415
 11
2780.573339839274
 21
3043.885740973415
 72
     1
 10
2780.573339839274
 20
3043.885740973415
 11
2778.953339839234
 21
3043.885740973415
 72
     1
 10
2778.953339839234
 20
3043.885740973415
 11
2778.773339839272
 21
3043.885740973415
 72
     1
 10
2778.773339839273
 20
3043.885740973415
 11
2778.773339839273
 21
3026.970756501596
 72
     1
 10
2778.773339839273
 20
3026.970756501596
 11
2778.773339839273
 21
2845.885740973412
 72
     1
 10
2778.773339839273
 20
2845.885740973412
 11
2778.773339839273
 21
2843.185740973412
 72
     1
 10
2778.773339839273
 20
2843.185740973412
 11
2778.773339839273
 21
2818.885740973415
 97
        0
 75
     0
 76
     1
 52
-15.0
 41
457.2
 77
     0
 78
     1
 53
30.0
 43
0.0
 44
0.0
 45
-28.575
 46
49.49335182628066
 79
     0
 98
        1
 10
1911.173339839272
 20
2928.707068568499
  0
HATCH
  5
521
330
6C
100
AcDbEntity
  8
Kreskowanie (ISO)
100
AcDbHatch
 10
0.0
 20
0.0
 30
0.0
210
0.0
220
0.0
230
1.0
  2
ANSI31
 70
     0
 71
     0
 91
        1
 92
        1
 93
        8
 72
     1
 10
1041.773339839264
 20
2818.885740973412
 11
1043.573339839264
 21
2818.885740973412
 72
     1
 10
1043.573339839264
 20
2818.885740973412
 11
1043.573339839263
 21
2843.185740973412
 72
     1
 10
1043.573339839264
 20
2843.185740973412
 11
1043.573339839264
 21
2845.885740973413
 72
     1
 10
1043.573339839264
 20
2845.885740973412
 11
1043.573339839264
 21
3026.970756501491
 72
     1
 10
1043.573339839264
 20
3026.970756501491
 11
1043.573339839264
 21
3043.885740973413
 72
     1
 10
1043.573339839264
 20
3043.885740973412
 11
1043.393339839253
 21
3043.885740973412
 72
     1
 10
1043.393339839254
 20
3043.885740973412
 11
1041.773339839264
 21
3043.885740973412
 72
     1
 10
1041.773339839264
 20
3043.885740973412
 11
1041.773339839264
 21
2818.885740973412
 97
        0
 75
     0
 76
     1
 52
105.0
 41
457.2
 77
     0
 78
     1
 53
150.0
 43
0.0
 44
0.0
 45
-28.575
 46
-49.49335182628068
 79
     0
 98
        1
 10
1911.173339839272
 20
2928.707068568499
  0
HATCH
  5
537
330
6C
100
AcDbEntity
  8
Kreskowanie (ISO)
100
AcDbHatch
 10
0.0
 20
0.0
 30
0.0
210
0.0
220
0.0
230
1.0
  2
ANSI31
 70
     0
 71
     0
 91
        3
 92
        1
 93
        6
 72
     1
 10
895.0733398392561
 20
2822.125740973412
 11
895.9733398392561
 21
2823.025740973412
 72
     1
 10
895.9733398392561
 20
2823.025740973412
 11
895.9733398392561
 21
2825.725740973412
 72
     1
 10
895.9733398392561
 20
2825.725740973412
 11
881.5733398392563
 21
2825.725740973412
 72
     1
 10
881.5733398392563
 20
2825.725740973412
 11
881.5733398392561
 21
2823.025740973412
 72
     1
 10
881.5733398392563
 20
2823.025740973412
 11
882.4733398392563
 21
2822.125740973412
 72
     1
 10
882.4733398392561
 20
2822.125740973412
 11
895.0733398392561
 21
2822.125740973412
 97
        0
 92
        1
 93
        8
 72
     1
 10
895.9733398392561
 20
2840.305740973412
 11
895.9733398392561
 21
2845.885740973412
 72
     1
 10
895.9733398392561
 20
2845.885740973412
 11
895.9733398392558
 21
3025.885740973413
 72
     1
 10
895.9733398392558
 20
3025.885740973413
 11
895.9733398392558
 21
3030.205740973413
 72
     1
 10
895.9733398392558
 20
3030.205740973413
 11
881.5733398392559
 21
3030.205740973413
 72
     1
 10
881.5733398392561
 20
3030.205740973413
 11
881.5733398392557
 21
3025.885740973413
 72
     1
 10
881.5733398392557
 20
3025.885740973413
 11
881.5733398392561
 21
2845.885740973413
 72
     1
 10
881.5733398392561
 20
2845.885740973412
 11
881.5733398392561
 21
2840.305740973412
 72
     1
 10
881.5733398392561
 20
2840.305740973412
 11
895.9733398392563
 21
2840.305740973412
 97
        0
 92
        1
 93
        7
 72
     1
 10
895.9733398392558
 20
3044.785740973413
 11
895.9733398392558
 21
3047.485740973412
 72
     1
 10
895.9733398392558
 20
3047.485740973412
 11
895.0733398392557
 21
3048.385740973412
 72
     1
 10
895.0733398392557
 20
3048.385740973412
 11
882.4733398392556
 21
3048.385740973412
 72
     1
 10
882.4733398392556
 20
3048.385740973412
 11
881.5733398392557
 21
3047.485740973413
 72
     1
 10
881.5733398392557
 20
3047.485740973412
 11
881.5733398392557
 21
3044.785740973412
 72
     1
 10
881.5733398392557
 20
3044.785740973413
 11
888.7733398392557
 21
3044.785740973413
 72
     1
 10
888.7733398392557
 20
3044.785740973413
 11
895.9733398392556
 21
3044.785740973413
 97
        0
 75
     0
 76
     1
 52
0.0
 41
457.2
 77
     0
 78
     1
 53
45.0
 43
0.0
 44
0.0
 45
-40.41115254481119
 46
40.41115254481119
 79
     0
 98
        1
 10
1911.173339839272
 20
2928.707068568499
  0
HATCH
  5
54D
330
6C
100
AcDbEntity
  8
Kreskowanie (ISO)
100
AcDbHatch
 10
0.0
 20
0.0
 30
0.0
210
0.0
220
0.0
230
1.0
  2
ANSI31
 70
     0
 71
     0
 91
        3
 92
        1
 93
        6
 72
     1
 10
2939.873339839233
 20
2822.125740973408
 11
2940.773339839232
 21
2823.025740973408
 72
     1
 10
2940.773339839232
 20
2823.025740973408
 11
2940.773339839232
 21
2825.725740973408
 72
     1
 10
2940.773339839232
 20
2825.725740973408
 11
2926.373339839233
 21
2825.725740973408
 72
     1
 10
2926.373339839233
 20
2825.725740973408
 11
2926.373339839233
 21
2823.025740973408
 72
     1
 10
2926.373339839233
 20
2823.025740973408
 11
2927.273339839233
 21
2822.125740973408
 72
     1
 10
2927.273339839233
 20
2822.125740973408
 11
2939.873339839233
 21
2822.125740973408
 97
        0
 92
        1
 93
        8
 72
     1
 10
2940.773339839232
 20
2840.305740973408
 11
2940.773339839232
 21
2845.885740973412
 72
     1
 10
2940.773339839232
 20
2845.885740973412
 11
2940.773339839233
 21
3025.885740973413
 72
     1
 10
2940.773339839233
 20
3025.885740973413
 11
2940.773339839233
 21
3030.205740973409
 72
     1
 10
2940.773339839233
 20
3030.205740973408
 11
2926.373339839233
 21
3030.205740973408
 72
     1
 10
2926.373339839233
 20
3030.205740973408
 11
2926.373339839233
 21
3025.885740973413
 72
     1
 10
2926.373339839233
 20
3025.885740973413
 11
2926.373339839232
 21
2845.885740973413
 72
     1
 10
2926.373339839233
 20
2845.885740973412
 11
2926.373339839233
 21
2840.305740973408
 72
     1
 10
2926.373339839233
 20
2840.305740973408
 11
2940.773339839232
 21
2840.305740973408
 97
        0
 92
        1
 93
        7
 72
     1
 10
2940.773339839233
 20
3044.785740973408
 11
2940.773339839233
 21
3047.485740973408
 72
     1
 10
2940.773339839233
 20
3047.485740973408
 11
2939.873339839233
 21
3048.385740973408
 72
     1
 10
2939.873339839234
 20
3048.385740973408
 11
2927.273339839234
 21
3048.385740973408
 72
     1
 10
2927.273339839233
 20
3048.385740973408
 11
2926.373339839233
 21
3047.485740973408
 72
     1
 10
2926.373339839233
 20
3047.485740973408
 11
2926.373339839233
 21
3044.785740973408
 72
     1
 10
2926.373339839233
 20
3044.785740973408
 11
2933.573339839233
 21
3044.785740973408
 72
     1
 10
2933.573339839233
 20
3044.785740973408
 11
2940.773339839233
 21
3044.785740973408
 97
        0
 75
     0
 76
     1
 52
90.0
 41
457.2
 77
     0
 78
     1
 53
135.0
 43
0.0
 44
0.0
 45
-40.41115254481119
 46
-40.41115254481119
 79
     0
 98
        1
 10
1911.173339839272
 20
2928.707068568499
  0
HATCH
  5
55C
330
6C
100
AcDbEntity
  8
Kreskowanie (ISO)
100
AcDbHatch
 10
0.0
 20
0.0
 30
0.0
210
0.0
220
0.0
230
1.0
  2
ANSI31
 70
     0
 71
     0
 91
        1
 92
        1
 93
       14
 72
     1
 10
1041.773339839264
 20
3049.285740973412
 11
1011.173339839264
 21
3049.285740973412
 72
     1
 10
1011.173339839264
 20
3049.285740973412
 11
1011.173339839264
 21
3049.105740973412
 72
     1
 10
1011.173339839264
 20
3049.105740973412
 11
1011.173339839264
 21
3047.305740973412
 72
     1
 10
1011.173339839264
 20
3047.305740973412
 11
1011.173339839264
 21
3030.205740973413
 72
     1
 10
1011.173339839264
 20
3030.205740973413
 11
1011.173339839264
 21
3027.505740973412
 72
     1
 10
1011.173339839264
 20
3027.505740973412
 11
1011.173339839264
 21
3025.885740973413
 72
     1
 10
1011.173339839264
 20
3025.885740973413
 11
1011.173339839264
 21
2845.885740973413
 72
     1
 10
1011.173339839264
 20
2845.885740973412
 11
1011.173339839264
 21
2776.585740973412
 72
     1
 10
1011.173339839264
 20
2776.585740973412
 11
1041.773339839264
 21
2776.585740973412
 72
     1
 10
1041.773339839264
 20
2776.585740973412
 11
1041.773339839264
 21
2818.885740973412
 72
     1
 10
1041.773339839264
 20
2818.885740973412
 11
1041.773339839264
 21
3043.885740973412
 72
     1
 10
1041.773339839264
 20
3043.885740973412
 11
1041.773339839264
 21
3047.015489995996
 72
     1
 10
1041.773339839264
 20
3047.015489995996
 11
1041.773339839264
 21
3048.932935222607
 72
     1
 10
1041.773339839264
 20
3048.932935222607
 11
1041.773339839264
 21
3049.285740973412
 97
        0
 75
     0
 76
     1
 52
15.0
 41
457.2
 77
     0
 78
     1
 53
60.0
 43
0.0
 44
0.0
 45
-49.49335182628066
 46
28.57500000000001
 79
     0
 98
        1
 10
1911.173339839272
 20
2928.707068568499
  0
MTEXT
  5
55D
102
{ACAD_XDICTIONARY
360
5BD
102
}
102
{ACAD_REACTORS
330
55E
102
}
330
6C
100
AcDbEntity
  8
Symbol (ISO)
100
AcDbMText
 10
1068.162046527374
 20
3788.373588017034
 30
0.0
 40
36.0000005364418
 41
682.86226272583
 71
     1
 72
     1
  1
{\U+015Bcian PW / wall made of panels}
  7
wibo Tekst notatki (ISO)
 73
     1
 44
1.0
1001
ACAD
1000
MTEXTBEGIN
1070
    73
1070
     1
1070
    44
1040
1.0
1070
    74
1070
     0
1000
MTEXTEND
  0
LEADER
  5
55E
330
6C
100
AcDbEntity
  8
Symbol (ISO)
100
AcDbLeader
  3
wibo Domyślne - Metoda 1b (ISO)$7
 73
     0
 74
     0
 75
     1
 40
50.48220324676041
 41
680.4942972142328
 76
     3
 10
684.8816434100342
 20
3025.885740973413
 30
0.0
 10
1009.446046527374
 20
3770.373587748814
 30
0.0
 10
1054.446046527374
 20
3770.373587748814
 30
0.0
340
55D
213
0.0
223
-18.0000002682209
233
0.0
1001
ACAD
1000
DSTYLE
1002
{
1070
    77
1070
     0
1002
}
  0
MTEXT
  5
55F
102
{ACAD_XDICTIONARY
360
5BF
102
}
102
{ACAD_REACTORS
330
560
102
}
330
6C
100
AcDbEntity
  8
Symbol (ISO)
100
AcDbMText
 10
1232.85119015029
 20
3703.803489341146
 30
0.0
 40
36.0000005364418
 41
744.0973091125488
 71
     1
 72
     1
  1
{\U+015Bruba monta\U+017Cowa assambly screw}
  7
wibo Tekst notatki (ISO)
 73
     1
 44
1.0
1001
ACAD
1000
MTEXTBEGIN
1070
    73
1070
     1
1070
    44
1040
1.0
1070
    74
1070
     0
1000
MTEXTEND
  0
LEADER
  5
560
330
6C
100
AcDbEntity
  8
Symbol (ISO)
100
AcDbLeader
  3
wibo Domyślne - Metoda 1b (ISO)$7
 73
     0
 74
     0
 75
     1
 40
50.48220324676041
 41
741.9529948451069
 76
     3
 10
895.9733398392558
 20
2982.536352715536
 30
0.0
 10
1174.13519015029
 20
3685.803489072925
 30
0.0
 10
1219.13519015029
 20
3685.803489072925
 30
0.0
340
55F
213
0.0
223
-18.0000002682209
233
0.0
1001
ACAD
1000
DSTYLE
1002
{
1070
    77
1070
     0
1002
}
  0
MTEXT
  5
561
102
{ACAD_REACTORS
330
562
102
}
330
6C
100
AcDbEntity
  8
Symbol (ISO)
100
AcDbMText
 10
1722.597549768527
 20
3469.289951170715
 30
0.0
 40
36.0000005364418
 41
447.5202655792236
 71
     1
 72
     1
  1
{futryna / door frame}
  7
wibo Tekst notatki (ISO)
 73
     1
 44
1.0
1001
ACAD
1000
MTEXTBEGIN
1070
    73
1070
     1
1070
    44
1040
1.0
1070
    74
1070
     0
1000
MTEXTEND
  0
LEADER
  5
562
330
6C
100
AcDbEntity
  8
Symbol (ISO)
100
AcDbLeader
  3
wibo Domyślne - Metoda 1b (ISO)$7
 73
     0
 74
     0
 75
     1
 40
47.82270020215138
 41
445.6118237744449
 76
     3
 10
1065.173339839263
 20
2838.865740973412
 30
0.0
 10
1663.881549768527
 20
3451.289950902495
 30
0.0
 10
1708.881549768527
 20
3451.289950902495
 30
0.0
340
561
213
0.0
223
-18.0000002682209
233
0.0
1001
ACAD
1000
DSTYLE
1002
{
1070
    77
1070
     0
1002
}
  0
MTEXT
  5
563
102
{ACAD_XDICTIONARY
360
5C1
102
}
102
{ACAD_REACTORS
330
564
102
}
330
6C
100
AcDbEntity
  8
Symbol (ISO)
100
AcDbMText
 10
1661.70497171509
 20
3549.187166821658
 30
0.0
 40
36.0000005364418
 41
272.7423119544983
 71
     1
 72
     1
  1
{\U+0142\U+0105cznik / link}
  7
wibo Tekst notatki (ISO)
 73
     1
 44
1.0
1001
ACAD
1000
MTEXTBEGIN
1070
    73
1070
     1
1070
    44
1040
1.0
1070
    74
1070
     0
1000
MTEXTEND
  0
LEADER
  5
564
330
6C
100
AcDbEntity
  8
Symbol (ISO)
100
AcDbLeader
  3
wibo Domyślne - Metoda 1b (ISO)$7
 73
     0
 74
     0
 75
     1
 40
47.60510449850154
 41
273.2276718829691
 76
     3
 10
1043.573339839264
 20
2958.055534677779
 30
0.0
 10
1602.988971715091
 20
3531.187166553436
 30
0.0
 10
1647.988971715091
 20
3531.187166553436
 30
0.0
340
563
213
0.0
223
-18.0000002682209
233
0.0
1001
ACAD
1000
DSTYLE
1002
{
1070
    77
1070
     0
1002
}
  0
MTEXT
  5
565
102
{ACAD_REACTORS
330
566
102
}
330
6C
100
AcDbEntity
  8
Symbol (ISO)
100
AcDbMText
 10
1555.552890492489
 20
3625.909977402828
 30
0.0
 40
36.0000005364418
 41
394.6288633346558
 71
     1
 72
     1
  1
{okucie / hardware}
  7
wibo Tekst notatki (ISO)
 73
     1
 44
1.0
1001
ACAD
1000
MTEXTBEGIN
1070
    73
1070
     1
1070
    44
1040
1.0
1070
    74
1070
     0
1000
MTEXTEND
  0
LEADER
  5
566
330
6C
100
AcDbEntity
  8
Symbol (ISO)
100
AcDbLeader
  3
wibo Domyślne - Metoda 1b (ISO)$7
 73
     0
 74
     0
 75
     1
 40
45.45332476240878
 41
392.0349260757758
 76
     3
 10
992.0046409770931
 20
3051.085740973412
 30
0.0
 10
1496.836890492489
 20
3607.909977134607
 30
0.0
 10
1541.836890492489
 20
3607.909977134607
 30
0.0
340
565
213
0.0
223
-18.0000002682209
233
0.0
1001
ACAD
1000
DSTYLE
1002
{
1070
    77
1070
     0
1002
}
  0
MTEXT
  5
567
102
{ACAD_REACTORS
330
568
102
}
330
6C
100
AcDbEntity
  8
Symbol (ISO)
100
AcDbMText
 10
1061.485459623742
 20
2312.847919014032
 30
0.0
 40
36.0000005364418
 41
313.9060020446777
 71
     1
 72
     1
  1
{zawias / hinge}
  7
wibo Tekst notatki (ISO)
 73
     1
 44
1.0
1001
ACAD
1000
MTEXTBEGIN
1070
    73
1070
     1
1070
    44
1040
1.0
1070
    74
1070
     0
1000
MTEXTEND
  0
LEADER
  5
568
330
6C
100
AcDbEntity
  8
Symbol (ISO)
100
AcDbLeader
  3
wibo Domyślne - Metoda 1b (ISO)$7
 73
     0
 74
     0
 75
     1
 40
47.84687750255691
 41
311.5003384249334
 76
     3
 10
912.1733398392638
 20
2655.085740973412
 30
0.0
 10
1002.769459623743
 20
2294.847918745811
 30
0.0
 10
1047.769459623743
 20
2294.847918745811
 30
0.0
340
567
213
0.0
223
-18.0000002682209
233
0.0
1001
ACAD
1000
DSTYLE
1002
{
1070
    77
1070
     0
1002
}
  0
MTEXT
  5
569
102
{ACAD_XDICTIONARY
360
5C3
102
}
102
{ACAD_REACTORS
330
56A
102
}
330
6C
100
AcDbEntity
  8
Symbol (ISO)
100
AcDbMText
 10
1560.003948428244
 20
2301.720274451415
 30
0.0
 40
36.0000005364418
 41
577.0794582366943
 71
     1
 72
     1
  1
{skrzyd\U+0142o drzwi / door wing}
  7
wibo Tekst notatki (ISO)
 73
     1
 44
1.0
1001
ACAD
1000
MTEXTBEGIN
1070
    73
1070
     1
1070
    44
1040
1.0
1070
    74
1070
     0
1000
MTEXTEND
  0
LEADER
  5
56A
330
6C
100
AcDbEntity
  8
Symbol (ISO)
100
AcDbLeader
  3
wibo Domyślne - Metoda 1b (ISO)$7
 73
     0
 74
     0
 75
     1
 40
47.84687750255691
 41
572.3250551998622
 76
     3
 10
1399.276442098627
 20
2631.685740973411
 30
0.0
 10
1501.287948428244
 20
2283.720274183195
 30
0.0
 10
1546.287948428244
 20
2283.720274183195
 30
0.0
340
569
213
0.0
223
-18.0000002682209
233
0.0
1001
ACAD
1000
DSTYLE
1002
{
1070
    77
1070
     0
1002
}
  0
MTEXT
  5
56B
102
{ACAD_REACTORS
330
56C
102
}
330
6C
100
AcDbEntity
  8
Symbol (ISO)
100
AcDbMText
 10
2623.806795073563
 20
2303.945803363939
 30
0.0
 40
36.0000005364418
 41
729.1896343231201
 71
     1
 72
     1
  1
{rygiel + zamek / interlock system}
  7
wibo Tekst notatki (ISO)
 73
     1
 44
1.0
1001
ACAD
1000
MTEXTBEGIN
1070
    73
1070
     1
1070
    44
1040
1.0
1070
    74
1070
     0
1000
MTEXTEND
  0
LEADER
  5
56C
330
6C
100
AcDbEntity
  8
Symbol (ISO)
100
AcDbLeader
  3
wibo Domyślne - Metoda 1b (ISO)$7
 73
     0
 74
     0
 75
     1
 40
47.84687750255691
 41
722.9738140267606
 76
     3
 10
2487.560107390596
 20
2588.845740973408
 30
0.0
 10
2565.090795073563
 20
2285.945803095717
 30
0.0
 10
2610.090795073563
 20
2285.945803095717
 30
0.0
340
56B
213
0.0
223
-18.0000002682209
233
0.0
1001
ACAD
1000
DSTYLE
1002
{
1070
    77
1070
     0
1002
}
  0
MTEXT
  5
56D
102
{ACAD_REACTORS
330
56E
102
}
330
6C
100
AcDbEntity
  8
Symbol (ISO)
100
AcDbMText
 10
2957.636140255149
 20
2404.094604427491
 30
0.0
 40
36.0000005364418
 41
339.8411822319031
 71
     1
 72
     1
  1
{uszczelka / seal}
  7
wibo Tekst notatki (ISO)
 73
     1
 44
1.0
1001
ACAD
1000
MTEXTBEGIN
1070
    73
1070
     1
1070
    44
1040
1.0
1070
    74
1070
     0
1000
MTEXTEND
  0
LEADER
  5
56E
330
6C
100
AcDbEntity
  8
Symbol (ISO)
100
AcDbLeader
  3
wibo Domyślne - Metoda 1b (ISO)$7
 73
     0
 74
     0
 75
     1
 40
45.45332476240878
 41
333.4533271931606
 76
     3
 10
2790.091884775907
 20
2760.428706454352
 30
0.0
 10
2898.920140255149
 20
2386.09460415927
 30
0.0
 10
2943.920140255149
 20
2386.09460415927
 30
0.0
340
56D
213
0.0
223
-18.0000002682209
233
0.0
1001
ACAD
1000
DSTYLE
1002
{
1070
    77
1070
     0
1002
}
  0
ENDSEC
  0
SECTION
  2
OBJECTS
  0
DICTIONARY
  5
C
330
0
100
AcDbDictionary
281
     1
  3
ACAD_COLOR
350
63
  3
ACAD_GROUP
350
D
  3
ACAD_LAYOUT
350
62
  3
ACAD_MATERIAL
350
10
  3
ACAD_MLEADERSTYLE
350
66
  3
ACAD_MLINESTYLE
350
5F
  3
ACAD_PLOTSETTINGS
350
61
  3
ACAD_PLOTSTYLENAME
350
E
  3
ACAD_SCALELIST
350
42
  3
ACAD_TABLESTYLE
350
64
  3
ACAD_VISUALSTYLE
350
29
  3
ACDB_RECOMPOSE_DATA
350
57E
  3
AcDbVariableDictionary
350
56F
  3
DWGPROPS
350
57F
  0
DICTIONARY
  5
5BB
330
DA
100
AcDbDictionary
280
     1
281
     1
  3
ACAD_MTEXT_RT
360
5BC
  0
DICTIONARY
  5
5BD
330
55D
100
AcDbDictionary
280
     1
281
     1
  3
ACAD_MTEXT_RT
360
5BE
  0
DICTIONARY
  5
5BF
330
55F
100
AcDbDictionary
280
     1
281
     1
  3
ACAD_MTEXT_RT
360
5C0
  0
DICTIONARY
  5
5C1
330
563
100
AcDbDictionary
280
     1
281
     1
  3
ACAD_MTEXT_RT
360
5C2
  0
DICTIONARY
  5
5C3
330
569
100
AcDbDictionary
280
     1
281
     1
  3
ACAD_MTEXT_RT
360
5C4
  0
DICTIONARY
  5
63
102
{ACAD_REACTORS
330
C
102
}
330
C
100
AcDbDictionary
281
     1
  0
DICTIONARY
  5
D
102
{ACAD_REACTORS
330
C
102
}
330
C
100
AcDbDictionary
281
     1
  0
DICTIONARY
  5
62
102
{ACAD_REACTORS
330
C
102
}
330
C
100
AcDbDictionary
281
     1
  3
Layout1
350
6B
  3
Layout2
350
73
  3
Model
350
6F
  0
DICTIONARY
  5
10
102
{ACAD_REACTORS
330
C
102
}
330
C
100
AcDbDictionary
281
     1
  3
ByBlock
350
19
  3
ByLayer
350
11
  3
Global
350
21
  0
DICTIONARY
  5
66
102
{ACAD_REACTORS
330
C
102
}
330
C
100
AcDbDictionary
281
     1
  3
Standard
350
67
  0
DICTIONARY
  5
5F
102
{ACAD_REACTORS
330
C
102
}
330
C
100
AcDbDictionary
281
     1
  3
Standard
350
60
  0
DICTIONARY
  5
61
102
{ACAD_REACTORS
330
C
102
}
330
C
100
AcDbDictionary
281
     1
  0
ACDBDICTIONARYWDFLT
  5
E
102
{ACAD_REACTORS
330
C
102
}
330
C
100
AcDbDictionary
281
     1
  3
Normal
350
F
100
AcDbDictionaryWithDefault
340
F
  0
DICTIONARY
  5
42
102
{ACAD_REACTORS
330
C
102
}
330
C
100
AcDbDictionary
281
     1
  3
A0
350
43
  3
A1
350
44
  3
A2
350
45
  3
A3
350
46
  3
A4
350
47
  3
A5
350
48
  3
A6
350
49
  3
A7
350
4A
  3
A8
350
4B
  3
A9
350
4C
  3
B0
350
4D
  3
B1
350
4E
  3
B2
350
4F
  3
B3
350
50
  3
B4
350
51
  3
B5
350
52
  3
B6
350
53
  0
DICTIONARY
  5
64
102
{ACAD_REACTORS
330
C
102
}
330
C
100
AcDbDictionary
281
     1
  3
Standard
350
65
  0
DICTIONARY
  5
29
102
{ACAD_REACTORS
330
C
102
}
330
C
100
AcDbDictionary
281
     1
  3
2dWireframe
350
2F
  3
Basic
350
2E
  3
Brighten
350
35
  3
ColorChange
350
39
  3
Conceptual
350
32
  3
Dim
350
34
  3
EdgeColorOff
350
41
  3
Facepattern
350
38
  3
Flat
350
2A
  3
FlatWithEdges
350
2B
  3
Gouraud
350
2C
  3
GouraudWithEdges
350
2D
  3
Hidden
350
31
  3
JitterOff
350
3F
  3
Linepattern
350
37
  3
OverhangOff
350
40
  3
Realistic
350
33
  3
Shaded
350
3E
  3
Shaded with edges
350
3D
  3
Shades of Gray
350
3A
  3
Sketchy
350
3B
  3
Thicken
350
36
  3
Wireframe
350
30
  3
X-Ray
350
3C
  0
XRECORD
  5
57E
102
{ACAD_REACTORS
330
C
102
}
330
C
100
AcDbXrecord
280
     1
 90
        1
330
65
  0
DICTIONARY
  5
56F
102
{ACAD_REACTORS
330
C
102
}
330
C
100
AcDbDictionary
281
     1
  3
CANNOSCALE
350
573
  3
CMLEADERSTYLE
350
571
  3
CTABLESTYLE
350
570
  3
DIMASSOC
350
57A
  3
HIDETEXT
350
579
  3
INDEXCTL
350
578
  3
LAYEREVAL
350
575
  3
LAYERNOTIFY
350
576
  3
LIGHTINGUNITS
350
574
  3
MSLTSCALE
350
572
  3
SORTENTS
350
577
  3
XCLIPFRAME
350
57B
  0
XRECORD
  5
57F
102
{ACAD_REACTORS
330
C
102
}
330
C
100
AcDbXrecord
280
     1
  1
DWGPROPS COOKIE
  2

  3

  4
A.Godlewski
  6

  7

  8

  9

300
Menadżer=
301
Firma=
302
Kategoria=
303
Numer części=Drzwi ZK10
304
Opis=
305
Projekt=
306
Projektant=A.Godlewski
307
Inżynier=A. Godlewski
308
Zatwierdził=A. Godlewski
309
Centrum kosztów=
 40
0.0000268981481481
 41
2457149.296384688
 42
2457149.296384688
  1

 90
       21
300
Dostawca=
300
Stan użytkownika=
300
Stan projektu=PracaWToku
300
Sprawdził=
300
Zatwierdził konstrukcję=
300
Zatwierdził do produkcji=
300
zastąpiony przez rys. nr=
300
zastępuje rys. nr=
300
inwestor=
300
nr zlec=//
300
podzialka=1:18
  0
XRECORD
  5
5BC
102
{ACAD_REACTORS
330
5BB
102
}
330
5BB
100
AcDbXrecord
280
     1
 40
45613.0
  1
 Ilość kompletów
  0
XRECORD
  5
5BE
102
{ACAD_REACTORS
330
5BD
102
}
330
5BD
100
AcDbXrecord
280
     1
 40
66292.0
  1
{ścian PW / wall made of panels}
  0
XRECORD
  5
5C0
102
{ACAD_REACTORS
330
5BF
102
}
330
5BF
100
AcDbXrecord
280
     1
 40
93013.0
  1
{śruba montażowa assambly screw}
  0
XRECORD
  5
5C2
102
{ACAD_REACTORS
330
5C1
102
}
330
5C1
100
AcDbXrecord
280
     1
 40
33544.0
  1
{łącznik / link}
  0
XRECORD
  5
5C4
102
{ACAD_REACTORS
330
5C3
102
}
330
5C3
100
AcDbXrecord
280
     1
 40
53471.0
  1
{skrzydło drzwi / door wing}
  0
LAYOUT
  5
6B
102
{ACAD_XDICTIONARY
360
5B5
102
}
102
{ACAD_REACTORS
330
62
102
}
330
62
100
AcDbPlotSettings
  1

  2

  4

  6

 40
0.0
 41
0.0
 42
0.0
 43
0.0
 44
0.0
 45
0.0
 46
0.0
 47
0.0
 48
0.0
 49
0.0
140
0.0
141
0.0
142
1.0
143
1.0
 70
   688
 72
     0
 73
     0
 74
     5
  7

 75
    16
147
1.0
148
0.0
149
0.0
100
AcDbLayout
  1
Layout1
 70
     1
 71
     1
 10
0.0
 20
0.0
 11
12.0
 21
9.0
 12
0.0
 22
0.0
 32
0.0
 14
0.0
 24
0.0
 34
0.0
 15
0.0
 25
0.0
 35
0.0
146
0.0
 13
0.0
 23
0.0
 33
0.0
 16
1.0
 26
0.0
 36
0.0
 17
0.0
 27
1.0
 37
0.0
 76
     0
330
68
  0
LAYOUT
  5
73
102
{ACAD_XDICTIONARY
360
5B9
102
}
102
{ACAD_REACTORS
330
62
102
}
330
62
100
AcDbPlotSettings
  1

  2

  4

  6

 40
0.0
 41
0.0
 42
0.0
 43
0.0
 44
0.0
 45
0.0
 46
0.0
 47
0.0
 48
0.0
 49
0.0
140
0.0
141
0.0
142
1.0
143
1.0
 70
   688
 72
     0
 73
     0
 74
     5
  7

 75
    16
147
1.0
148
0.0
149
0.0
100
AcDbLayout
  1
Layout2
 70
     1
 71
     2
 10
0.0
 20
0.0
 11
12.0
 21
9.0
 12
0.0
 22
0.0
 32
0.0
 14
0.0
 24
0.0
 34
0.0
 15
0.0
 25
0.0
 35
0.0
146
0.0
 13
0.0
 23
0.0
 33
0.0
 16
1.0
 26
0.0
 36
0.0
 17
0.0
 27
1.0
 37
0.0
 76
     0
330
70
  0
LAYOUT
  5
6F
102
{ACAD_XDICTIONARY
360
5B7
102
}
102
{ACAD_REACTORS
330
62
102
}
330
62
100
AcDbPlotSettings
  1

  2

  4

  6

 40
0.0
 41
0.0
 42
0.0
 43
0.0
 44
0.0
 45
0.0
 46
0.0
 47
0.0
 48
0.0
 49
0.0
140
0.0
141
0.0
142
1.0
143
1.0
 70
  1712
 72
     0
 73
     0
 74
     0
  7

 75
     0
147
1.0
148
0.0
149
0.0
100
AcDbLayout
  1
Model
 70
     1
 71
     0
 10
0.0
 20
0.0
 11
12.0
 21
9.0
 12
0.0
 22
0.0
 32
0.0
 14
0.0
 24
0.0
 34
0.0
 15
0.0
 25
0.0
 35
0.0
146
0.0
 13
0.0
 23
0.0
 33
0.0
 16
1.0
 26
0.0
 36
0.0
 17
0.0
 27
1.0
 37
0.0
 76
     0
330
6C
  0
MATERIAL
  5
19
102
{ACAD_XDICTIONARY
360
1A
102
}
102
{ACAD_REACTORS
330
10
102
}
330
10
100
AcDbMaterial
  1
ByBlock
 72
     0
 43
0.0208333333333333
 43
0.0
 43
0.0
 43
0.0
 43
0.0
 43
0.0208333333333333
 43
0.0
 43
0.0
 43
0.0
 43
0.0
 43
1.0
 43
0.0
 43
0.0
 43
0.0
 43
0.0
 43
1.0
 77
     0
 47
0.0208333333333333
 47
0.0
 47
0.0
 47
0.0
 47
0.0
 47
0.0208333333333333
 47
0.0
 47
0.0
 47
0.0
 47
0.0
 47
1.0
 47
0.0
 47
0.0
 47
0.0
 47
0.0
 47
1.0
171
     0
 49
0.0208333333333333
 49
0.0
 49
0.0
 49
0.0
 49
0.0
 49
0.0208333333333333
 49
0.0
 49
0.0
 49
0.0
 49
0.0
 49
1.0
 49
0.0
 49
0.0
 49
0.0
 49
0.0
 49
1.0
175
     0
142
0.0208333333333333
142
0.0
142
0.0
142
0.0
142
0.0
142
0.0208333333333333
142
0.0
142
0.0
142
0.0
142
0.0
142
1.0
142
0.0
142
0.0
142
0.0
142
0.0
142
1.0
179
     0
144
0.0208333333333333
144
0.0
144
0.0
144
0.0
144
0.0
144
0.0208333333333333
144
0.0
144
0.0
144
0.0
144
0.0
144
1.0
144
0.0
144
0.0
144
0.0
144
0.0
144
1.0
147
0.0208333333333333
147
0.0
147
0.0
147
0.0
147
0.0
147
0.0208333333333333
147
0.0
147
0.0
147
0.0
147
0.0
147
1.0
147
0.0
147
0.0
147
0.0
147
0.0
147
1.0
  0
MATERIAL
  5
11
102
{ACAD_XDICTIONARY
360
12
102
}
102
{ACAD_REACTORS
330
10
102
}
330
10
100
AcDbMaterial
  1
ByLayer
 72
     0
 43
0.0208333333333333
 43
0.0
 43
0.0
 43
0.0
 43
0.0
 43
0.0208333333333333
 43
0.0
 43
0.0
 43
0.0
 43
0.0
 43
1.0
 43
0.0
 43
0.0
 43
0.0
 43
0.0
 43
1.0
 77
     0
 47
0.0208333333333333
 47
0.0
 47
0.0
 47
0.0
 47
0.0
 47
0.0208333333333333
 47
0.0
 47
0.0
 47
0.0
 47
0.0
 47
1.0
 47
0.0
 47
0.0
 47
0.0
 47
0.0
 47
1.0
171
     0
 49
0.0208333333333333
 49
0.0
 49
0.0
 49
0.0
 49
0.0
 49
0.0208333333333333
 49
0.0
 49
0.0
 49
0.0
 49
0.0
 49
1.0
 49
0.0
 49
0.0
 49
0.0
 49
0.0
 49
1.0
175
     0
142
0.0208333333333333
142
0.0
142
0.0
142
0.0
142
0.0
142
0.0208333333333333
142
0.0
142
0.0
142
0.0
142
0.0
142
1.0
142
0.0
142
0.0
142
0.0
142
0.0
142
1.0
179
     0
144
0.0208333333333333
144
0.0
144
0.0
144
0.0
144
0.0
144
0.0208333333333333
144
0.0
144
0.0
144
0.0
144
0.0
144
1.0
144
0.0
144
0.0
144
0.0
144
0.0
144
1.0
147
0.0208333333333333
147
0.0
147
0.0
147
0.0
147
0.0
147
0.0208333333333333
147
0.0
147
0.0
147
0.0
147
0.0
147
1.0
147
0.0
147
0.0
147
0.0
147
0.0
147
1.0
  0
MATERIAL
  5
21
102
{ACAD_XDICTIONARY
360
22
102
}
102
{ACAD_REACTORS
330
10
102
}
330
10
100
AcDbMaterial
  1
Global
 72
     0
 43
0.0208333333333333
 43
0.0
 43
0.0
 43
0.0
 43
0.0
 43
0.0208333333333333
 43
0.0
 43
0.0
 43
0.0
 43
0.0
 43
1.0
 43
0.0
 43
0.0
 43
0.0
 43
0.0
 43
1.0
 77
     0
 47
0.0208333333333333
 47
0.0
 47
0.0
 47
0.0
 47
0.0
 47
0.0208333333333333
 47
0.0
 47
0.0
 47
0.0
 47
0.0
 47
1.0
 47
0.0
 47
0.0
 47
0.0
 47
0.0
 47
1.0
171
     0
 49
0.0208333333333333
 49
0.0
 49
0.0
 49
0.0
 49
0.0
 49
0.0208333333333333
 49
0.0
 49
0.0
 49
0.0
 49
0.0
 49
1.0
 49
0.0
 49
0.0
 49
0.0
 49
0.0
 49
1.0
175
     0
142
0.0208333333333333
142
0.0
142
0.0
142
0.0
142
0.0
142
0.0208333333333333
142
0.0
142
0.0
142
0.0
142
0.0
142
1.0
142
0.0
142
0.0
142
0.0
142
0.0
142
1.0
179
     0
144
0.0208333333333333
144
0.0
144
0.0
144
0.0
144
0.0
144
0.0208333333333333
144
0.0
144
0.0
144
0.0
144
0.0
144
1.0
144
0.0
144
0.0
144
0.0
144
0.0
144
1.0
147
0.0208333333333333
147
0.0
147
0.0
147
0.0
147
0.0
147
0.0208333333333333
147
0.0
147
0.0
147
0.0
147
0.0
147
1.0
147
0.0
147
0.0
147
0.0
147
0.0
147
1.0
  0
MLEADERSTYLE
  5
67
102
{ACAD_REACTORS
330
66
102
}
330
66
100
AcDbMLeaderStyle
170
     2
171
     1
172
     0
 90
        2
 40
0.0
 41
0.0
173
     1
 91
-1056964608
340
5B
 92
       -2
290
     1
 42
0.09
291
     1
 43
0.36
  3
Standard
 44
0.18
300

342
55
174
     1
178
     6
175
     1
176
     0
 93
-1056964608
 45
0.18
292
     0
297
     0
 46
0.18
 94
-1056964608
 47
1.0
 49
1.0
140
1.0
293
     1
141
0.0
294
     1
177
     0
142
1.0
295
     0
296
     0
143
0.125
1001
ACAD_MLEADERVER
1070
     2
  0
MLINESTYLE
  5
60
102
{ACAD_REACTORS
330
5F
102
}
330
5F
100
AcDbMlineStyle
  2
STANDARD
 70
     0
  3

 62
   256
 51
90.0
 52
90.0
 71
     2
 49
0.5
 62
   256
  6
BYLAYER
 49
-0.5
 62
   256
  6
BYLAYER
  0
ACDBPLACEHOLDER
  5
F
102
{ACAD_REACTORS
330
E
102
}
330
E
  0
SCALE
  5
43
102
{ACAD_REACTORS
330
42
102
}
330
42
100
AcDbScale
 70
     0
300
1:1
140
1.0
141
1.0
290
     1
  0
SCALE
  5
44
102
{ACAD_REACTORS
330
42
102
}
330
42
100
AcDbScale
 70
     0
300
1/128" = 1'-0"
140
0.0078125
141
12.0
290
     0
  0
SCALE
  5
45
102
{ACAD_REACTORS
330
42
102
}
330
42
100
AcDbScale
 70
     0
300
1/64" = 1'-0"
140
0.015625
141
12.0
290
     0
  0
SCALE
  5
46
102
{ACAD_REACTORS
330
42
102
}
330
42
100
AcDbScale
 70
     0
300
1/32" = 1'-0"
140
0.03125
141
12.0
290
     0
  0
SCALE
  5
47
102
{ACAD_REACTORS
330
42
102
}
330
42
100
AcDbScale
 70
     0
300
1/16" = 1'-0"
140
0.0625
141
12.0
290
     0
  0
SCALE
  5
48
102
{ACAD_REACTORS
330
42
102
}
330
42
100
AcDbScale
 70
     0
300
3/32" = 1'-0"
140
0.09375
141
12.0
290
     0
  0
SCALE
  5
49
102
{ACAD_REACTORS
330
42
102
}
330
42
100
AcDbScale
 70
     0
300
1/8" = 1'-0"
140
0.125
141
12.0
290
     0
  0
SCALE
  5
4A
102
{ACAD_REACTORS
330
42
102
}
330
42
100
AcDbScale
 70
     0
300
3/16" = 1'-0"
140
0.1875
141
12.0
290
     0
  0
SCALE
  5
4B
102
{ACAD_REACTORS
330
42
102
}
330
42
100
AcDbScale
 70
     0
300
1/4" = 1'-0"
140
0.25
141
12.0
290
     0
  0
SCALE
  5
4C
102
{ACAD_REACTORS
330
42
102
}
330
42
100
AcDbScale
 70
     0
300
3/8" = 1'-0"
140
0.375
141
12.0
290
     0
  0
SCALE
  5
4D
102
{ACAD_REACTORS
330
42
102
}
330
42
100
AcDbScale
 70
     0
300
1/2" = 1'-0"
140
0.5
141
12.0
290
     0
  0
SCALE
  5
4E
102
{ACAD_REACTORS
330
42
102
}
330
42
100
AcDbScale
 70
     0
300
3/4" = 1'-0"
140
0.75
141
12.0
290
     0
  0
SCALE
  5
4F
102
{ACAD_REACTORS
330
42
102
}
330
42
100
AcDbScale
 70
     0
300
1" = 1'-0"
140
1.0
141
12.0
290
     0
  0
SCALE
  5
50
102
{ACAD_REACTORS
330
42
102
}
330
42
100
AcDbScale
 70
     0
300
1-1/2" = 1'-0"
140
1.5
141
12.0
290
     0
  0
SCALE
  5
51
102
{ACAD_REACTORS
330
42
102
}
330
42
100
AcDbScale
 70
     0
300
3" = 1'-0"
140
3.0
141
12.0
290
     0
  0
SCALE
  5
52
102
{ACAD_REACTORS
330
42
102
}
330
42
100
AcDbScale
 70
     0
300
6" = 1'-0"
140
6.0
141
12.0
290
     0
  0
SCALE
  5
53
102
{ACAD_REACTORS
330
42
102
}
330
42
100
AcDbScale
 70
     0
300
1'-0" = 1'-0"
140
12.0
141
12.0
290
     0
  0
TABLESTYLE
  5
65
102
{ACAD_XDICTIONARY
360
57C
102
}
102
{ACAD_REACTORS
330
64
102
}
330
64
100
AcDbTableStyle
  3
Standard
 70
     0
 71
     0
 40
0.06
 41
0.06
280
     0
281
     0
  7
Standard
140
0.18
170
     2
 62
     0
 63
     7
283
     0
274
    -2
284
     1
 64
     0
275
    -2
285
     1
 65
     0
276
    -2
286
     1
 66
     0
277
    -2
287
     1
 67
     0
278
    -2
288
     1
 68
     0
279
    -2
289
     1
 69
     0
  7
Standard
140
0.25
170
     5
 62
     0
 63
     7
283
     0
274
    -2
284
     1
 64
     0
275
    -2
285
     1
 65
     0
276
    -2
286
     1
 66
     0
277
    -2
287
     1
 67
     0
278
    -2
288
     1
 68
     0
279
    -2
289
     1
 69
     0
  7
Standard
140
0.18
170
     5
 62
     0
 63
     7
283
     0
274
    -2
284
     1
 64
     0
275
    -2
285
     1
 65
     0
276
    -2
286
     1
 66
     0
277
    -2
287
     1
 67
     0
278
    -2
288
     1
 68
     0
279
    -2
289
     1
 69
     0
  0
VISUALSTYLE
  5
2F
102
{ACAD_XDICTIONARY
360
58D
102
}
102
{ACAD_REACTORS
330
29
102
}
330
29
100
AcDbVisualStyle
  2
2dWireframe
 70
     4
 71
     0
 72
     2
 73
     0
 90
        0
 40
-0.6
 41
-30.0
 62
     5
 63
     7
 74
     1
 91
        4
 64
     7
 65
   257
 75
     1
175
     1
 42
1.0
 92
        0
 66
   257
 43
1.0
 76
     1
 77
     6
 78
     2
 67
     7
 79
     5
170
     0
171
     0
290
     0
174
     0
 93
        1
 44
0.0
173
     0
291
     0
 45
0.0
1001
ACAD
1000
AcDbSavedByObjectVersion
1070
     0
  0
VISUALSTYLE
  5
2E
102
{ACAD_XDICTIONARY
360
58B
102
}
102
{ACAD_REACTORS
330
29
102
}
330
29
100
AcDbVisualStyle
  2
Basic
 70
     7
 71
     1
 72
     0
 73
     1
 90
        0
 40
-0.6
 41
-30.0
 62
     5
 63
     7
 74
     0
 91
        4
 64
     7
 65
   257
 75
     1
175
     1
 42
1.0
 92
        8
 66
     7
 43
1.0
 76
     1
 77
     6
 78
     2
 67
     7
 79
     5
170
     0
171
     0
290
     0
174
     0
 93
        1
 44
0.0
173
     0
291
     1
 45
0.0
1001
ACAD
1000
AcDbSavedByObjectVersion
1070
     0
  0
VISUALSTYLE
  5
35
102
{ACAD_XDICTIONARY
360
599
102
}
102
{ACAD_REACTORS
330
29
102
}
330
29
100
AcDbVisualStyle
  2
Brighten
 70
    12
 71
     2
 72
     2
 73
     0
 90
        0
 40
-0.6
 41
-30.0
 62
     5
 63
     7
 74
     1
 91
        4
 64
     7
 65
   257
 75
     1
175
     1
 42
1.0
 92
        8
 66
     7
 43
1.0
 76
     1
 77
     6
 78
     2
 67
     7
 79
     5
170
     0
171
     0
290
     0
174
     0
 93
        1
 44
50.0
173
     0
291
     1
 45
0.0
1001
ACAD
1000
AcDbSavedByObjectVersion
1070
     0
  0
VISUALSTYLE
  5
39
102
{ACAD_XDICTIONARY
360
5A1
102
}
102
{ACAD_REACTORS
330
29
102
}
330
29
100
AcDbVisualStyle
  2
ColorChange
 70
    16
 71
     2
 72
     2
 73
     3
 90
        0
 40
-0.6
 41
-30.0
 62
     5
 63
     8
 74
     1
 91
        4
 64
     7
 65
   257
 75
     1
175
     1
 42
1.0
 92
        8
 66
     8
 43
1.0
 76
     1
 77
     6
 78
     2
 67
     7
 79
     5
170
     0
171
     0
290
     0
174
     0
 93
        1
 44
0.0
173
     0
291
     1
 45
0.0
1001
ACAD
1000
AcDbSavedByObjectVersion
1070
     0
  0
VISUALSTYLE
  5
32
102
{ACAD_XDICTIONARY
360
593
102
}
102
{ACAD_REACTORS
330
29
102
}
330
29
100
AcDbVisualStyle
  2
Conceptual
 70
     9
 71
     3
 72
     2
 73
     0
 90
        0
 40
-0.6
 41
-30.0
 62
     5
 63
     7
 74
     2
 91
        2
 64
     7
 65
   257
 75
     1
175
     1
 42
179.0
 92
        8
 66
     7
 43
1.0
 76
     1
 77
     6
 78
     2
 67
     7
 79
     3
170
     0
171
     0
290
     0
174
     0
 93
        1
 44
0.0
173
     0
291
     0
 45
0.0
1001
ACAD
1000
AcDbSavedByObjectVersion
1070
     0
  0
VISUALSTYLE
  5
34
102
{ACAD_XDICTIONARY
360
597
102
}
102
{ACAD_REACTORS
330
29
102
}
330
29
100
AcDbVisualStyle
  2
Dim
 70
    11
 71
     2
 72
     2
 73
     0
 90
        0
 40
-0.6
 41
-30.0
 62
     5
 63
     7
 74
     1
 91
        4
 64
     7
 65
   257
 75
     1
175
     1
 42
1.0
 92
        8
 66
     7
 43
1.0
 76
     1
 77
     6
 78
     2
 67
     7
 79
     5
170
     0
171
     0
290
     0
174
     0
 93
        1
 44
-50.0
173
     0
291
     1
 45
0.0
1001
ACAD
1000
AcDbSavedByObjectVersion
1070
     0
  0
VISUALSTYLE
  5
41
102
{ACAD_XDICTIONARY
360
5B1
102
}
102
{ACAD_REACTORS
330
29
102
}
330
29
100
AcDbVisualStyle
  2
EdgeColorOff
 70
    22
 71
     2
 72
     2
 73
     0
 90
        0
 40
-0.6
 41
-30.0
 62
     5
 63
     7
 74
     1
 91
        4
 64
     7
 65
   257
 75
     1
175
     1
 42
1.0
 92
        8
 66
     7
 43
1.0
 76
     1
 77
     6
 78
     2
 67
     7
 79
     5
170
     0
171
     0
290
     0
174
     0
 93
        1
 44
0.0
173
     0
291
     1
 45
0.0
1001
ACAD
1000
AcDbSavedByObjectVersion
1070
     0
  0
VISUALSTYLE
  5
38
102
{ACAD_XDICTIONARY
360
59F
102
}
102
{ACAD_REACTORS
330
29
102
}
330
29
100
AcDbVisualStyle
  2
Facepattern
 70
    15
 71
     2
 72
     2
 73
     0
 90
        0
 40
-0.6
 41
-30.0
 62
     5
 63
     7
 74
     1
 91
        4
 64
     7
 65
   257
 75
     1
175
     1
 42
1.0
 92
        8
 66
     7
 43
1.0
 76
     1
 77
     6
 78
     2
 67
     7
 79
     5
170
     0
171
     0
290
     0
174
     0
 93
        1
 44
0.0
173
     0
291
     1
 45
0.0
1001
ACAD
1000
AcDbSavedByObjectVersion
1070
     0
  0
VISUALSTYLE
  5
2A
102
{ACAD_XDICTIONARY
360
583
102
}
102
{ACAD_REACTORS
330
29
102
}
330
29
100
AcDbVisualStyle
  2
Flat
 70
     0
 71
     2
 72
     1
 73
     1
 90
        2
 40
-0.6
 41
30.0
 62
     5
 63
     7
 74
     0
 91
        0
 64
     7
 65
   257
 75
     1
175
     1
 42
1.0
 92
        8
 66
     7
 43
1.0
 76
     1
 77
     6
 78
     2
 67
     7
 79
     5
170
     0
171
     0
290
     0
174
     0
 93
       13
 44
0.0
173
     0
291
     1
 45
0.0
1001
ACAD
1000
AcDbSavedByObjectVersion
1070
     0
  0
VISUALSTYLE
  5
2B
102
{ACAD_XDICTIONARY
360
585
102
}
102
{ACAD_REACTORS
330
29
102
}
330
29
100
AcDbVisualStyle
  2
FlatWithEdges
 70
     1
 71
     2
 72
     1
 73
     1
 90
        2
 40
-0.6
 41
30.0
 62
     5
 63
     7
 74
     1
 91
        0
 64
     7
 65
   257
 75
     1
175
     1
 42
1.0
 92
        0
 66
   257
 43
1.0
 76
     1
 77
     6
 78
     2
 67
     7
 79
     5
170
     0
171
     0
290
     0
174
     0
 93
       13
 44
0.0
173
     0
291
     1
 45
0.0
1001
ACAD
1000
AcDbSavedByObjectVersion
1070
     0
  0
VISUALSTYLE
  5
2C
102
{ACAD_XDICTIONARY
360
587
102
}
102
{ACAD_REACTORS
330
29
102
}
330
29
100
AcDbVisualStyle
  2
Gouraud
 70
     2
 71
     2
 72
     2
 73
     1
 90
        2
 40
-0.6
 41
30.0
 62
     5
 63
     7
 74
     0
 91
        0
 64
     7
 65
   257
 75
     1
175
     1
 42
1.0
 92
        0
 66
     7
 43
1.0
 76
     1
 77
     6
 78
     2
 67
     7
 79
     5
170
     0
171
     0
290
     0
174
     0
 93
       13
 44
0.0
173
     0
291
     1
 45
0.0
1001
ACAD
1000
AcDbSavedByObjectVersion
1070
     0
  0
VISUALSTYLE
  5
2D
102
{ACAD_XDICTIONARY
360
589
102
}
102
{ACAD_REACTORS
330
29
102
}
330
29
100
AcDbVisualStyle
  2
GouraudWithEdges
 70
     3
 71
     2
 72
     2
 73
     1
 90
        2
 40
-0.6
 41
30.0
 62
     5
 63
     7
 74
     1
 91
        0
 64
     7
 65
   257
 75
     1
175
     1
 42
1.0
 92
        0
 66
   257
 43
1.0
 76
     1
 77
     6
 78
     2
 67
     7
 79
     5
170
     0
171
     0
290
     0
174
     0
 93
       13
 44
0.0
173
     0
291
     1
 45
0.0
1001
ACAD
1000
AcDbSavedByObjectVersion
1070
     0
  0
VISUALSTYLE
  5
31
102
{ACAD_XDICTIONARY
360
591
102
}
102
{ACAD_REACTORS
330
29
102
}
330
29
100
AcDbVisualStyle
  2
Hidden
 70
     6
 71
     1
 72
     2
 73
     2
 90
        0
 40
-0.6
 41
-30.0
 62
     5
 63
     7
 74
     2
 91
        2
 64
     7
 65
   257
 75
     2
175
     1
 42
40.0
 92
        0
 66
   257
 43
1.0
 76
     1
 77
     6
 78
     2
 67
     7
 79
     3
170
     0
171
     0
290
     0
174
     0
 93
        1
 44
0.0
173
     0
291
     0
 45
0.0
1001
ACAD
1000
AcDbSavedByObjectVersion
1070
     0
  0
VISUALSTYLE
  5
3F
102
{ACAD_XDICTIONARY
360
5AD
102
}
102
{ACAD_REACTORS
330
29
102
}
330
29
100
AcDbVisualStyle
  2
JitterOff
 70
    20
 71
     2
 72
     2
 73
     0
 90
        0
 40
-0.6
 41
-30.0
 62
     5
 63
     7
 74
     1
 91
        4
 64
     7
 65
   257
 75
     1
175
     1
 42
1.0
 92
       10
 66
     7
 43
1.0
 76
     1
 77
     6
 78
     2
 67
     7
 79
     5
170
     0
171
     0
290
     0
174
     0
 93
        1
 44
0.0
173
     0
291
     1
 45
0.0
1001
ACAD
1000
AcDbSavedByObjectVersion
1070
     0
  0
VISUALSTYLE
  5
37
102
{ACAD_XDICTIONARY
360
59D
102
}
102
{ACAD_REACTORS
330
29
102
}
330
29
100
AcDbVisualStyle
  2
Linepattern
 70
    14
 71
     2
 72
     2
 73
     0
 90
        0
 40
-0.6
 41
-30.0
 62
     5
 63
     7
 74
     1
 91
        4
 64
     7
 65
   257
 75
     7
175
     7
 42
1.0
 92
        8
 66
     7
 43
1.0
 76
     1
 77
     6
 78
     2
 67
     7
 79
     5
170
     0
171
     0
290
     0
174
     0
 93
        1
 44
0.0
173
     0
291
     1
 45
0.0
1001
ACAD
1000
AcDbSavedByObjectVersion
1070
     0
  0
VISUALSTYLE
  5
40
102
{ACAD_XDICTIONARY
360
5AF
102
}
102
{ACAD_REACTORS
330
29
102
}
330
29
100
AcDbVisualStyle
  2
OverhangOff
 70
    21
 71
     2
 72
     2
 73
     0
 90
        0
 40
-0.6
 41
-30.0
 62
     5
 63
     7
 74
     1
 91
        4
 64
     7
 65
   257
 75
     1
175
     1
 42
1.0
 92
        9
 66
     7
 43
1.0
 76
     1
 77
     6
 78
     2
 67
     7
 79
     5
170
     0
171
     0
290
     0
174
     0
 93
        1
 44
0.0
173
     0
291
     1
 45
0.0
1001
ACAD
1000
AcDbSavedByObjectVersion
1070
     0
  0
VISUALSTYLE
  5
33
102
{ACAD_XDICTIONARY
360
595
102
}
102
{ACAD_REACTORS
330
29
102
}
330
29
100
AcDbVisualStyle
  2
Realistic
 70
     8
 71
     2
 72
     3
 73
     0
 90
        2
 40
-0.6
 41
30.0
 62
     5
 63
     7
 74
     0
 91
        0
 64
     7
 65
   257
 75
     1
175
     1
 42
1.0
 92
        8
 66
   257
 43
1.0
 76
     1
 77
     6
 78
     2
 67
     7
 79
     3
170
     0
171
     0
290
     0
174
     0
 93
       13
 44
0.0
173
     0
291
     0
 45
0.0
1001
ACAD
1000
AcDbSavedByObjectVersion
1070
     0
  0
VISUALSTYLE
  5
3E
102
{ACAD_XDICTIONARY
360
5AB
102
}
102
{ACAD_REACTORS
330
29
102
}
330
29
100
AcDbVisualStyle
  2
Shaded
 70
    27
 71
     2
 72
     2
 73
     1
 90
        2
 40
-0.6
 41
30.0
 62
     5
 63
     7
 74
     0
 91
        4
 64
     7
 65
   257
 75
     1
175
     1
 42
1.0
 92
        8
 66
   257
 43
1.0
 76
     1
 77
     6
 78
     2
 67
     8
 79
     3
170
     0
171
     0
290
     0
174
     0
 93
        5
 44
0.0
173
     0
291
     0
 45
0.0
1001
ACAD
1000
AcDbSavedByObjectVersion
1070
     0
  0
VISUALSTYLE
  5
3D
102
{ACAD_XDICTIONARY
360
5A9
102
}
102
{ACAD_REACTORS
330
29
102
}
330
29
100
AcDbVisualStyle
  2
Shaded with edges
 70
    26
 71
     2
 72
     2
 73
     1
 90
        2
 40
-0.6
 41
30.0
 62
     5
 63
     7
 74
     1
 91
       10
 64
     7
 65
   257
 75
     2
175
     1
 42
1.0
 92
        8
 66
   257
 43
1.0
 76
     1
 77
     6
 78
     2
 67
     7
 79
     3
170
     0
171
     0
290
     0
174
     0
 93
        5
 44
0.0
173
     0
291
     0
 45
0.0
1001
ACAD
1000
AcDbSavedByObjectVersion
1070
     0
  0
VISUALSTYLE
  5
3A
102
{ACAD_XDICTIONARY
360
5A3
102
}
102
{ACAD_REACTORS
330
29
102
}
330
29
100
AcDbVisualStyle
  2
Shades of Gray
 70
    23
 71
     2
 72
     2
 73
     3
 90
        0
 40
-0.6
 41
-30.0
 62
     5
 63
     7
 74
     2
 91
        2
 64
     7
 65
     7
 75
     1
175
     1
 42
40.0
 92
        8
 66
     7
 43
1.0
 76
     1
 77
     6
 78
     2
 67
     7
 79
     3
170
     0
171
     0
290
     0
174
     0
 93
        1
 44
0.0
173
     0
291
     0
 45
0.0
1001
ACAD
1000
AcDbSavedByObjectVersion
1070
     0
  0
VISUALSTYLE
  5
3B
102
{ACAD_XDICTIONARY
360
5A5
102
}
102
{ACAD_REACTORS
330
29
102
}
330
29
100
AcDbVisualStyle
  2
Sketchy
 70
    24
 71
     1
 72
     2
 73
     2
 90
        0
 40
-0.6
 41
-30.0
 62
     5
 63
     7
 74
     2
 91
        2
 64
     7
 65
     7
 75
     1
175
     1
 42
40.0
 92
       11
 66
     7
 43
1.0
 76
     1
 77
     6
 78
     2
 67
     7
 79
     6
170
     0
171
     0
290
     0
174
     0
 93
        1
 44
0.0
173
     0
291
     0
 45
0.0
1001
ACAD
1000
AcDbSavedByObjectVersion
1070
     0
  0
VISUALSTYLE
  5
36
102
{ACAD_XDICTIONARY
360
59B
102
}
102
{ACAD_REACTORS
330
29
102
}
330
29
100
AcDbVisualStyle
  2
Thicken
 70
    13
 71
     2
 72
     2
 73
     0
 90
        0
 40
-0.6
 41
-30.0
 62
     5
 63
     7
 74
     1
 91
        4
 64
     7
 65
   257
 75
     1
175
     1
 42
1.0
 92
       12
 66
     7
 43
1.0
 76
     1
 77
     6
 78
     2
 67
     7
 79
     5
170
     0
171
     0
290
     0
174
     0
 93
        1
 44
0.0
173
     0
291
     1
 45
0.0
1001
ACAD
1000
AcDbSavedByObjectVersion
1070
     0
  0
VISUALSTYLE
  5
30
102
{ACAD_XDICTIONARY
360
58F
102
}
102
{ACAD_REACTORS
330
29
102
}
330
29
100
AcDbVisualStyle
  2
Wireframe
 70
     5
 71
     0
 72
     2
 73
     0
 90
        0
 40
-0.6
 41
-30.0
 62
     5
 63
     7
 74
     1
 91
        4
 64
     7
 65
   257
 75
     1
175
     1
 42
1.0
 92
        0
 66
   257
 43
1.0
 76
     1
 77
     6
 78
     2
 67
     7
 79
     3
170
     0
171
     0
290
     0
174
     0
 93
        1
 44
0.0
173
     0
291
     0
 45
0.0
1001
ACAD
1000
AcDbSavedByObjectVersion
1070
     0
  0
VISUALSTYLE
  5
3C
102
{ACAD_XDICTIONARY
360
5A7
102
}
102
{ACAD_REACTORS
330
29
102
}
330
29
100
AcDbVisualStyle
  2
X-Ray
 70
    25
 71
     2
 72
     2
 73
     1
 90
        1
 40
0.5
 41
-30.0
 62
     5
 63
     7
 74
     1
 91
        0
 64
     7
 65
   257
 75
     1
175
     1
 42
1.0
 92
        8
 66
     7
 43
1.0
 76
     1
 77
     6
 78
     2
 67
     7
 79
     3
170
     0
171
     0
290
     0
174
     0
 93
       13
 44
0.0
173
     0
291
     0
 45
0.0
1001
ACAD
1000
AcDbSavedByObjectVersion
1070
     0
  0
DICTIONARYVAR
  5
573
102
{ACAD_REACTORS
330
56F
102
}
330
56F
100
DictionaryVariables
280
     0
  1
1:1
  0
DICTIONARYVAR
  5
571
102
{ACAD_REACTORS
330
56F
102
}
330
56F
100
DictionaryVariables
280
     0
  1
STANDARD
  0
DICTIONARYVAR
  5
570
102
{ACAD_REACTORS
330
56F
102
}
330
56F
100
DictionaryVariables
280
     0
  1
STANDARD
  0
DICTIONARYVAR
  5
57A
102
{ACAD_REACTORS
330
56F
102
}
330
56F
100
DictionaryVariables
280
     0
  1
1
  0
DICTIONARYVAR
  5
579
102
{ACAD_REACTORS
330
56F
102
}
330
56F
100
DictionaryVariables
280
     0
  1
1
  0
DICTIONARYVAR
  5
578
102
{ACAD_REACTORS
330
56F
102
}
330
56F
100
DictionaryVariables
280
     0
  1
0
  0
DICTIONARYVAR
  5
575
102
{ACAD_REACTORS
330
56F
102
}
330
56F
100
DictionaryVariables
280
     0
  1
0
  0
DICTIONARYVAR
  5
576
102
{ACAD_REACTORS
330
56F
102
}
330
56F
100
DictionaryVariables
280
     0
  1
0
  0
DICTIONARYVAR
  5
574
102
{ACAD_REACTORS
330
56F
102
}
330
56F
100
DictionaryVariables
280
     0
  1
2
  0
DICTIONARYVAR
  5
572
102
{ACAD_REACTORS
330
56F
102
}
330
56F
100
DictionaryVariables
280
     0
  1
1
  0
DICTIONARYVAR
  5
577
102
{ACAD_REACTORS
330
56F
102
}
330
56F
100
DictionaryVariables
280
     0
  1
127
  0
DICTIONARYVAR
  5
57B
102
{ACAD_REACTORS
330
56F
102
}
330
56F
100
DictionaryVariables
280
     0
  1
2
  0
DICTIONARY
  5
5B5
330
6B
100
AcDbDictionary
280
     1
281
     1
  3
ACAD_XREC_ROUNDTRIP
360
5B6
  0
DICTIONARY
  5
5B9
330
73
100
AcDbDictionary
280
     1
281
     1
  3
ACAD_XREC_ROUNDTRIP
360
5BA
  0
DICTIONARY
  5
5B7
330
6F
100
AcDbDictionary
280
     1
281
     1
  3
ACAD_XREC_ROUNDTRIP
360
5B8
  0
DICTIONARY
  5
1A
330
19
100
AcDbDictionary
280
     1
281
     1
  3
ACAD_XREC_ROUNDTRIP
360
581
  3
BUMPTILE
360
1C
  3
DIFFUSETILE
360
1B
  3
OPACITYTILE
360
1F
  3
REFLECTIONTILE
360
1E
  3
REFRACTIONTILE
360
20
  3
SPECULARTILE
360
1D
  0
DICTIONARY
  5
12
330
11
100
AcDbDictionary
280
     1
281
     1
  3
ACAD_XREC_ROUNDTRIP
360
580
  3
BUMPTILE
360
14
  3
DIFFUSETILE
360
13
  3
OPACITYTILE
360
17
  3
REFLECTIONTILE
360
16
  3
REFRACTIONTILE
360
18
  3
SPECULARTILE
360
15
  0
DICTIONARY
  5
22
330
21
100
AcDbDictionary
280
     1
281
     1
  3
ACAD_XREC_ROUNDTRIP
360
582
  3
BUMPTILE
360
24
  3
DIFFUSETILE
360
23
  3
OPACITYTILE
360
27
  3
REFLECTIONTILE
360
26
  3
REFRACTIONTILE
360
28
  3
SPECULARTILE
360
25
  0
DICTIONARY
  5
57C
330
65
100
AcDbDictionary
280
     1
281
     1
  3
ACAD_ROUNDTRIP_2008_TABLESTYLE_CELLSTYLEMAP
360
57D
  3
ACAD_XREC_ROUNDTRIP
360
5B3
  0
DICTIONARY
  5
58D
330
2F
100
AcDbDictionary
280
     1
281
     1
  3
ACAD_XREC_ROUNDTRIP
360
58E
  0
DICTIONARY
  5
58B
330
2E
100
AcDbDictionary
280
     1
281
     1
  3
ACAD_XREC_ROUNDTRIP
360
58C
  0
DICTIONARY
  5
599
330
35
100
AcDbDictionary
280
     1
281
     1
  3
ACAD_XREC_ROUNDTRIP
360
59A
  0
DICTIONARY
  5
5A1
330
39
100
AcDbDictionary
280
     1
281
     1
  3
ACAD_XREC_ROUNDTRIP
360
5A2
  0
DICTIONARY
  5
593
330
32
100
AcDbDictionary
280
     1
281
     1
  3
ACAD_XREC_ROUNDTRIP
360
594
  0
DICTIONARY
  5
597
330
34
100
AcDbDictionary
280
     1
281
     1
  3
ACAD_XREC_ROUNDTRIP
360
598
  0
DICTIONARY
  5
5B1
330
41
100
AcDbDictionary
280
     1
281
     1
  3
ACAD_XREC_ROUNDTRIP
360
5B2
  0
DICTIONARY
  5
59F
330
38
100
AcDbDictionary
280
     1
281
     1
  3
ACAD_XREC_ROUNDTRIP
360
5A0
  0
DICTIONARY
  5
583
330
2A
100
AcDbDictionary
280
     1
281
     1
  3
ACAD_XREC_ROUNDTRIP
360
584
  0
DICTIONARY
  5
585
330
2B
100
AcDbDictionary
280
     1
281
     1
  3
ACAD_XREC_ROUNDTRIP
360
586
  0
DICTIONARY
  5
587
330
2C
100
AcDbDictionary
280
     1
281
     1
  3
ACAD_XREC_ROUNDTRIP
360
588
  0
DICTIONARY
  5
589
330
2D
100
AcDbDictionary
280
     1
281
     1
  3
ACAD_XREC_ROUNDTRIP
360
58A
  0
DICTIONARY
  5
591
330
31
100
AcDbDictionary
280
     1
281
     1
  3
ACAD_XREC_ROUNDTRIP
360
592
  0
DICTIONARY
  5
5AD
330
3F
100
AcDbDictionary
280
     1
281
     1
  3
ACAD_XREC_ROUNDTRIP
360
5AE
  0
DICTIONARY
  5
59D
330
37
100
AcDbDictionary
280
     1
281
     1
  3
ACAD_XREC_ROUNDTRIP
360
59E
  0
DICTIONARY
  5
5AF
330
40
100
AcDbDictionary
280
     1
281
     1
  3
ACAD_XREC_ROUNDTRIP
360
5B0
  0
DICTIONARY
  5
595
330
33
100
AcDbDictionary
280
     1
281
     1
  3
ACAD_XREC_ROUNDTRIP
360
596
  0
DICTIONARY
  5
5AB
330
3E
100
AcDbDictionary
280
     1
281
     1
  3
ACAD_XREC_ROUNDTRIP
360
5AC
  0
DICTIONARY
  5
5A9
330
3D
100
AcDbDictionary
280
     1
281
     1
  3
ACAD_XREC_ROUNDTRIP
360
5AA
  0
DICTIONARY
  5
5A3
330
3A
100
AcDbDictionary
280
     1
281
     1
  3
ACAD_XREC_ROUNDTRIP
360
5A4
  0
DICTIONARY
  5
5A5
330
3B
100
AcDbDictionary
280
     1
281
     1
  3
ACAD_XREC_ROUNDTRIP
360
5A6
  0
DICTIONARY
  5
59B
330
36
100
AcDbDictionary
280
     1
281
     1
  3
ACAD_XREC_ROUNDTRIP
360
59C
  0
DICTIONARY
  5
58F
330
30
100
AcDbDictionary
280
     1
281
     1
  3
ACAD_XREC_ROUNDTRIP
360
590
  0
DICTIONARY
  5
5A7
330
3C
100
AcDbDictionary
280
     1
281
     1
  3
ACAD_XREC_ROUNDTRIP
360
5A8
  0
XRECORD
  5
5B6
102
{ACAD_REACTORS
330
5B5
102
}
330
5B5
100
AcDbXrecord
280
     1
102
SHADEPLOT
 70
     0
102
SHADEPLOTRESLEVEL
 70
     2
102
SHADEPLOTCUSTOMDPI
 70
   300
  0
XRECORD
  5
5BA
102
{ACAD_REACTORS
330
5B9
102
}
330
5B9
100
AcDbXrecord
280
     1
102
SHADEPLOT
 70
     0
102
SHADEPLOTRESLEVEL
 70
     2
102
SHADEPLOTCUSTOMDPI
 70
   300
  0
XRECORD
  5
5B8
102
{ACAD_REACTORS
330
5B7
102
}
330
5B7
100
AcDbXrecord
280
     1
102
SHADEPLOT
 70
     0
102
SHADEPLOTRESLEVEL
 70
     2
102
SHADEPLOTCUSTOMDPI
 70
   300
  0
XRECORD
  5
581
102
{ACAD_REACTORS
330
1A
102
}
330
1A
100
AcDbXrecord
280
     1
102
MATERIAL
148
0.0
149
0.0
149
0.0
 93
        0
 94
      127
282
     0
 72
     0
 77
     0
171
     0
175
     0
179
     0
273
     0
  0
XRECORD
  5
1C
102
{ACAD_REACTORS
330
1A
102
}
330
1A
100
AcDbXrecord
280
     1
270
     1
271
     1
  0
XRECORD
  5
1B
102
{ACAD_REACTORS
330
1A
102
}
330
1A
100
AcDbXrecord
280
     1
270
     1
271
     1
  0
XRECORD
  5
1F
102
{ACAD_REACTORS
330
1A
102
}
330
1A
100
AcDbXrecord
280
     1
270
     1
271
     1
  0
XRECORD
  5
1E
102
{ACAD_REACTORS
330
1A
102
}
330
1A
100
AcDbXrecord
280
     1
270
     1
271
     1
  0
XRECORD
  5
20
102
{ACAD_REACTORS
330
1A
102
}
330
1A
100
AcDbXrecord
280
     1
270
     1
271
     1
  0
XRECORD
  5
1D
102
{ACAD_REACTORS
330
1A
102
}
330
1A
100
AcDbXrecord
280
     1
270
     1
271
     1
  0
XRECORD
  5
580
102
{ACAD_REACTORS
330
12
102
}
330
12
100
AcDbXrecord
280
     1
102
MATERIAL
148
0.0
149
0.0
149
0.0
 93
        0
 94
      127
282
     0
 72
     0
 77
     0
171
     0
175
     0
179
     0
273
     0
  0
XRECORD
  5
14
102
{ACAD_REACTORS
330
12
102
}
330
12
100
AcDbXrecord
280
     1
270
     1
271
     1
  0
XRECORD
  5
13
102
{ACAD_REACTORS
330
12
102
}
330
12
100
AcDbXrecord
280
     1
270
     1
271
     1
  0
XRECORD
  5
17
102
{ACAD_REACTORS
330
12
102
}
330
12
100
AcDbXrecord
280
     1
270
     1
271
     1
  0
XRECORD
  5
16
102
{ACAD_REACTORS
330
12
102
}
330
12
100
AcDbXrecord
280
     1
270
     1
271
     1
  0
XRECORD
  5
18
102
{ACAD_REACTORS
330
12
102
}
330
12
100
AcDbXrecord
280
     1
270
     1
271
     1
  0
XRECORD
  5
15
102
{ACAD_REACTORS
330
12
102
}
330
12
100
AcDbXrecord
280
     1
270
     1
271
     1
  0
XRECORD
  5
582
102
{ACAD_REACTORS
330
22
102
}
330
22
100
AcDbXrecord
280
     1
102
MATERIAL
148
0.0
149
0.0
149
0.0
 93
        0
 94
      127
282
     0
 72
     0
 77
     0
171
     0
175
     0
179
     0
273
     0
  0
XRECORD
  5
24
102
{ACAD_REACTORS
330
22
102
}
330
22
100
AcDbXrecord
280
     1
270
     1
271
     1
  0
XRECORD
  5
23
102
{ACAD_REACTORS
330
22
102
}
330
22
100
AcDbXrecord
280
     1
270
     1
271
     1
  0
XRECORD
  5
27
102
{ACAD_REACTORS
330
22
102
}
330
22
100
AcDbXrecord
280
     1
270
     1
271
     1
  0
XRECORD
  5
26
102
{ACAD_REACTORS
330
22
102
}
330
22
100
AcDbXrecord
280
     1
270
     1
271
     1
  0
XRECORD
  5
28
102
{ACAD_REACTORS
330
22
102
}
330
22
100
AcDbXrecord
280
     1
270
     1
271
     1
  0
XRECORD
  5
25
102
{ACAD_REACTORS
330
22
102
}
330
22
100
AcDbXrecord
280
     1
270
     1
271
     1
  0
CELLSTYLEMAP
  5
57D
102
{ACAD_REACTORS
330
57C
102
}
330
57C
100
AcDbCellStyleMap
 90
        3
300
CELLSTYLE
  1
TABLEFORMAT_BEGIN
 90
        5
170
     1
 91
        0
 92
    32768
 62
   257
 93
        1
300
CONTENTFORMAT
  1
CONTENTFORMAT_BEGIN
 90
        0
 91
        0
 92
      512
 93
        0
300

 40
0.0
140
1.0
 94
        5
 62
     0
340
55
144
0.25
309
CONTENTFORMAT_END
171
     0
 94
        0
309
TABLEFORMAT_END
  1
CELLSTYLE_BEGIN
 90
        1
 91
        1
300
_TITLE
309
CELLSTYLE_END
300
CELLSTYLE
  1
TABLEFORMAT_BEGIN
 90
        5
170
     1
 91
        0
 92
        0
 62
   257
 93
        1
300
CONTENTFORMAT
  1
CONTENTFORMAT_BEGIN
 90
        0
 91
        0
 92
      512
 93
        0
300

 40
0.0
140
1.0
 94
        5
 62
     0
340
55
144
0.18
309
CONTENTFORMAT_END
171
     0
 94
        0
309
TABLEFORMAT_END
  1
CELLSTYLE_BEGIN
 90
        2
 91
        1
300
_HEADER
309
CELLSTYLE_END
300
CELLSTYLE
  1
TABLEFORMAT_BEGIN
 90
        5
170
     1
 91
        0
 92
        0
 62
   257
 93
        1
300
CONTENTFORMAT
  1
CONTENTFORMAT_BEGIN
 90
        0
 91
        0
 92
      512
 93
        0
300

 40
0.0
140
1.0
 94
        2
 62
     0
340
55
144
0.18
309
CONTENTFORMAT_END
171
     0
 94
        0
309
TABLEFORMAT_END
  1
CELLSTYLE_BEGIN
 90
        3
 91
        2
300
_DATA
309
CELLSTYLE_END
  0
XRECORD
  5
5B3
102
{ACAD_REACTORS
330
57C
102
}
330
57C
100
AcDbXrecord
280
     1
102
ACAD_ROUNDTRIP_PRE2007_TABLESTYLE
 90
      512
 91
        0
  1

 92
      512
 93
        0
  2

 94
      512
 95
        0
  3

  0
XRECORD
  5
58E
102
{ACAD_REACTORS
330
58D
102
}
330
58D
100
AcDbXrecord
280
     1
102
RTVSPropertyOp0
 70
     1
102
RTVSPropertyOp1
 70
     1
102
RTVSPropertyOp2
 70
     1
102
RTVSPropertyOp3
 70
     1
102
RTVSPropertyOp4
 70
     1
102
RTVSPropertyOp5
 70
     1
102
RTVSPropertyOp6
 70
     1
102
RTVSPropertyOp7
 70
     1
102
RTVSPropertyOp8
 70
     1
102
RTVSPropertyOp9
 70
     1
102
RTVSPropertyOp10
 70
     1
102
RTVSPropertyOp11
 70
     1
102
RTVSPropertyOp12
 70
     1
102
RTVSPropertyOp13
 70
     1
102
RTVSPropertyOp14
 70
     1
102
RTVSPropertyOp15
 70
     1
102
RTVSPropertyOp16
 70
     1
102
RTVSPropertyOp17
 70
     1
102
RTVSPropertyOp18
 70
     1
102
RTVSPropertyOp19
 70
     1
102
RTVSPropertyOp20
 70
     1
102
RTVSPropertyOp21
 70
     1
102
RTVSPropertyOp22
 70
     1
102
RTVSPropertyOp23
 70
     1
102
RTVSPropertyOp24
 70
     1
102
RTVSPropertyOp25
 70
     1
102
RTVSPropertyOp26
 70
     1
102
RTVSPropertyOp27
 70
     1
102
RTVSPropertyOp28
 70
     1
102
RTVSPropertyOp29
 70
     1
102
RTVSPropertyOp30
 70
     1
102
RTVSPropertyOp31
 70
     1
102
RTVSPropertyOp32
 70
     1
  0
XRECORD
  5
58C
102
{ACAD_REACTORS
330
58B
102
}
330
58B
100
AcDbXrecord
280
     1
102
RTVSPropertyOp0
 70
     1
102
RTVSPropertyOp1
 70
     1
102
RTVSPropertyOp2
 70
     1
102
RTVSPropertyOp3
 70
     1
102
RTVSPropertyOp4
 70
     1
102
RTVSPropertyOp5
 70
     1
102
RTVSPropertyOp6
 70
     1
102
RTVSPropertyOp7
 70
     1
102
RTVSPropertyOp8
 70
     1
102
RTVSPropertyOp9
 70
     1
102
RTVSPropertyOp10
 70
     1
102
RTVSPropertyOp11
 70
     1
102
RTVSPropertyOp12
 70
     1
102
RTVSPropertyOp13
 70
     1
102
RTVSPropertyOp14
 70
     1
102
RTVSPropertyOp15
 70
     1
102
RTVSPropertyOp16
 70
     1
102
RTVSPropertyOp17
 70
     1
102
RTVSPropertyOp18
 70
     1
102
RTVSPropertyOp19
 70
     1
102
RTVSPropertyOp20
 70
     1
102
RTVSPropertyOp21
 70
     1
102
RTVSPropertyOp22
 70
     1
102
RTVSPropertyOp23
 70
     1
102
RTVSPropertyOp24
 70
     1
102
RTVSPropertyOp25
 70
     1
102
RTVSPropertyOp26
 70
     1
102
RTVSPropertyOp27
 70
     1
102
RTVSPropertyOp28
 70
     1
102
RTVSPropertyOp29
 70
     1
102
RTVSPropertyOp30
 70
     1
102
RTVSPropertyOp31
 70
     1
102
RTVSPropertyOp32
 70
     1
  0
XRECORD
  5
59A
102
{ACAD_REACTORS
330
599
102
}
330
599
100
AcDbXrecord
280
     1
102
RTVSPropertyOp0
 70
     1
102
RTVSPropertyOp1
 70
     1
102
RTVSPropertyOp2
 70
     1
102
RTVSPropertyOp3
 70
     1
102
RTVSPropertyOp4
 70
     1
102
RTVSPropertyOp5
 70
     1
102
RTVSPropertyOp6
 70
     1
102
RTVSPropertyOp7
 70
     1
102
RTVSPropertyOp8
 70
     1
102
RTVSPropertyOp9
 70
     1
102
RTVSPropertyOp10
 70
     1
102
RTVSPropertyOp11
 70
     1
102
RTVSPropertyOp12
 70
     1
102
RTVSPropertyOp13
 70
     1
102
RTVSPropertyOp14
 70
     1
102
RTVSPropertyOp15
 70
     1
102
RTVSPropertyOp16
 70
     1
102
RTVSPropertyOp17
 70
     1
102
RTVSPropertyOp18
 70
     1
102
RTVSPropertyOp19
 70
     1
102
RTVSPropertyOp20
 70
     1
102
RTVSPropertyOp21
 70
     1
102
RTVSPropertyOp22
 70
     1
102
RTVSPropertyOp23
 70
     1
102
RTVSPropertyOp24
 70
     1
102
RTVSPropertyOp25
 70
     1
102
RTVSPropertyOp26
 70
     1
102
RTVSPropertyOp27
 70
     1
102
RTVSPropertyOp28
 70
     1
102
RTVSPropertyOp29
 70
     1
102
RTVSPropertyOp30
 70
     1
102
RTVSPropertyOp31
 70
     1
102
RTVSPropertyOp32
 70
     1
  0
XRECORD
  5
5A2
102
{ACAD_REACTORS
330
5A1
102
}
330
5A1
100
AcDbXrecord
280
     1
102
RTVSPropertyOp0
 70
     1
102
RTVSPropertyOp1
 70
     1
102
RTVSPropertyOp2
 70
     1
102
RTVSPropertyOp3
 70
     1
102
RTVSPropertyOp4
 70
     1
102
RTVSPropertyOp5
 70
     1
102
RTVSPropertyOp6
 70
     1
102
RTVSPropertyOp7
 70
     1
102
RTVSPropertyOp8
 70
     1
102
RTVSPropertyOp9
 70
     1
102
RTVSPropertyOp10
 70
     1
102
RTVSPropertyOp11
 70
     1
102
RTVSPropertyOp12
 70
     1
102
RTVSPropertyOp13
 70
     1
102
RTVSPropertyOp14
 70
     1
102
RTVSPropertyOp15
 70
     1
102
RTVSPropertyOp16
 70
     1
102
RTVSPropertyOp17
 70
     1
102
RTVSPropertyOp18
 70
     1
102
RTVSPropertyOp19
 70
     1
102
RTVSPropertyOp20
 70
     1
102
RTVSPropertyOp21
 70
     1
102
RTVSPropertyOp22
 70
     1
102
RTVSPropertyOp23
 70
     1
102
RTVSPropertyOp24
 70
     1
102
RTVSPropertyOp25
 70
     1
102
RTVSPropertyOp26
 70
     1
102
RTVSPropertyOp27
 70
     1
102
RTVSPropertyOp28
 70
     1
102
RTVSPropertyOp29
 70
     1
102
RTVSPropertyOp30
 70
     1
102
RTVSPropertyOp31
 70
     1
102
RTVSPropertyOp32
 70
     1
  0
XRECORD
  5
594
102
{ACAD_REACTORS
330
593
102
}
330
593
100
AcDbXrecord
280
     1
102
RTVSPropertyOp0
 70
     1
102
RTVSPropertyOp1
 70
     1
102
RTVSPropertyOp2
 70
     1
102
RTVSPropertyOp3
 70
     1
102
RTVSPropertyOp4
 70
     1
102
RTVSPropertyOp5
 70
     1
102
RTVSPropertyOp6
 70
     1
102
RTVSPropertyOp7
 70
     1
102
RTVSPropertyOp8
 70
     1
102
RTVSPropertyOp9
 70
     1
102
RTVSPropertyOp10
 70
     1
102
RTVSPropertyOp11
 70
     1
102
RTVSPropertyOp12
 70
     1
102
RTVSPropertyOp13
 70
     1
102
RTVSPropertyOp14
 70
     1
102
RTVSPropertyOp15
 70
     1
102
RTVSPropertyOp16
 70
     1
102
RTVSPropertyOp17
 70
     1
102
RTVSPropertyOp18
 70
     1
102
RTVSPropertyOp19
 70
     1
102
RTVSPropertyOp20
 70
     1
102
RTVSPropertyOp21
 70
     1
102
RTVSPropertyOp22
 70
     1
102
RTVSPropertyOp23
 70
     1
102
RTVSPropertyOp24
 70
     1
102
RTVSPropertyOp25
 70
     1
102
RTVSPropertyOp26
 70
     1
102
RTVSPropertyOp27
 70
     1
102
RTVSPropertyOp28
 70
     1
102
RTVSPropertyOp29
 70
     1
102
RTVSPropertyOp30
 70
     1
102
RTVSPropertyOp31
 70
     1
102
RTVSPropertyOp32
 70
     1
  0
XRECORD
  5
598
102
{ACAD_REACTORS
330
597
102
}
330
597
100
AcDbXrecord
280
     1
102
RTVSPropertyOp0
 70
     1
102
RTVSPropertyOp1
 70
     1
102
RTVSPropertyOp2
 70
     1
102
RTVSPropertyOp3
 70
     1
102
RTVSPropertyOp4
 70
     1
102
RTVSPropertyOp5
 70
     1
102
RTVSPropertyOp6
 70
     1
102
RTVSPropertyOp7
 70
     1
102
RTVSPropertyOp8
 70
     1
102
RTVSPropertyOp9
 70
     1
102
RTVSPropertyOp10
 70
     1
102
RTVSPropertyOp11
 70
     1
102
RTVSPropertyOp12
 70
     1
102
RTVSPropertyOp13
 70
     1
102
RTVSPropertyOp14
 70
     1
102
RTVSPropertyOp15
 70
     1
102
RTVSPropertyOp16
 70
     1
102
RTVSPropertyOp17
 70
     1
102
RTVSPropertyOp18
 70
     1
102
RTVSPropertyOp19
 70
     1
102
RTVSPropertyOp20
 70
     1
102
RTVSPropertyOp21
 70
     1
102
RTVSPropertyOp22
 70
     1
102
RTVSPropertyOp23
 70
     1
102
RTVSPropertyOp24
 70
     1
102
RTVSPropertyOp25
 70
     1
102
RTVSPropertyOp26
 70
     1
102
RTVSPropertyOp27
 70
     1
102
RTVSPropertyOp28
 70
     1
102
RTVSPropertyOp29
 70
     1
102
RTVSPropertyOp30
 70
     1
102
RTVSPropertyOp31
 70
     1
102
RTVSPropertyOp32
 70
     1
  0
XRECORD
  5
5B2
102
{ACAD_REACTORS
330
5B1
102
}
330
5B1
100
AcDbXrecord
280
     1
102
RTVSPropertyOp0
 70
     0
102
RTVSPropertyOp1
 70
     0
102
RTVSPropertyOp2
 70
     0
102
RTVSPropertyOp3
 70
     0
102
RTVSPropertyOp4
 70
     0
102
RTVSPropertyOp5
 70
     0
102
RTVSPropertyOp6
 70
     0
102
RTVSPropertyOp7
 70
     0
102
RTVSPropertyOp8
 70
     0
102
RTVSPropertyOp9
 70
     0
102
RTVSPropertyOp10
 70
     0
102
RTVSPropertyOp11
 70
     0
102
RTVSPropertyOp12
 70
     0
102
RTVSPropertyOp13
 70
     0
102
RTVSPropertyOp14
 70
     2
102
RTVSPropertyOp15
 70
     0
102
RTVSPropertyOp16
 70
     0
102
RTVSPropertyOp17
 70
     0
102
RTVSPropertyOp18
 70
     0
102
RTVSPropertyOp19
 70
     0
102
RTVSPropertyOp20
 70
     0
102
RTVSPropertyOp21
 70
     0
102
RTVSPropertyOp22
 70
     0
102
RTVSPropertyOp23
 70
     0
102
RTVSPropertyOp24
 70
     0
102
RTVSPropertyOp25
 70
     0
102
RTVSPropertyOp26
 70
     0
102
RTVSPropertyOp27
 70
     0
102
RTVSPropertyOp28
 70
     0
102
RTVSPropertyOp29
 70
     0
102
RTVSPropertyOp30
 70
     0
102
RTVSPropertyOp31
 70
     0
102
RTVSPropertyOp32
 70
     0
  0
XRECORD
  5
5A0
102
{ACAD_REACTORS
330
59F
102
}
330
59F
100
AcDbXrecord
280
     1
102
RTVSPropertyOp0
 70
     1
102
RTVSPropertyOp1
 70
     1
102
RTVSPropertyOp2
 70
     1
102
RTVSPropertyOp3
 70
     1
102
RTVSPropertyOp4
 70
     1
102
RTVSPropertyOp5
 70
     1
102
RTVSPropertyOp6
 70
     1
102
RTVSPropertyOp7
 70
     1
102
RTVSPropertyOp8
 70
     1
102
RTVSPropertyOp9
 70
     1
102
RTVSPropertyOp10
 70
     1
102
RTVSPropertyOp11
 70
     1
102
RTVSPropertyOp12
 70
     1
102
RTVSPropertyOp13
 70
     1
102
RTVSPropertyOp14
 70
     1
102
RTVSPropertyOp15
 70
     1
102
RTVSPropertyOp16
 70
     1
102
RTVSPropertyOp17
 70
     1
102
RTVSPropertyOp18
 70
     1
102
RTVSPropertyOp19
 70
     1
102
RTVSPropertyOp20
 70
     1
102
RTVSPropertyOp21
 70
     1
102
RTVSPropertyOp22
 70
     1
102
RTVSPropertyOp23
 70
     1
102
RTVSPropertyOp24
 70
     1
102
RTVSPropertyOp25
 70
     1
102
RTVSPropertyOp26
 70
     1
102
RTVSPropertyOp27
 70
     1
102
RTVSPropertyOp28
 70
     1
102
RTVSPropertyOp29
 70
     1
102
RTVSPropertyOp30
 70
     1
102
RTVSPropertyOp31
 70
     1
102
RTVSPropertyOp32
 70
     1
  0
XRECORD
  5
584
102
{ACAD_REACTORS
330
583
102
}
330
583
100
AcDbXrecord
280
     1
102
RTVSPropertyOp0
 70
     1
102
RTVSPropertyOp1
 70
     1
102
RTVSPropertyOp2
 70
     1
102
RTVSPropertyOp3
 70
     1
102
RTVSPropertyOp4
 70
     1
102
RTVSPropertyOp5
 70
     1
102
RTVSPropertyOp6
 70
     1
102
RTVSPropertyOp7
 70
     1
102
RTVSPropertyOp8
 70
     1
102
RTVSPropertyOp9
 70
     1
102
RTVSPropertyOp10
 70
     1
102
RTVSPropertyOp11
 70
     1
102
RTVSPropertyOp12
 70
     1
102
RTVSPropertyOp13
 70
     1
102
RTVSPropertyOp14
 70
     1
102
RTVSPropertyOp15
 70
     1
102
RTVSPropertyOp16
 70
     1
102
RTVSPropertyOp17
 70
     1
102
RTVSPropertyOp18
 70
     1
102
RTVSPropertyOp19
 70
     1
102
RTVSPropertyOp20
 70
     1
102
RTVSPropertyOp21
 70
     1
102
RTVSPropertyOp22
 70
     1
102
RTVSPropertyOp23
 70
     1
102
RTVSPropertyOp24
 70
     1
102
RTVSPropertyOp25
 70
     1
102
RTVSPropertyOp26
 70
     1
102
RTVSPropertyOp27
 70
     1
102
RTVSPropertyOp28
 70
     1
102
RTVSPropertyOp29
 70
     1
102
RTVSPropertyOp30
 70
     1
102
RTVSPropertyOp31
 70
     1
102
RTVSPropertyOp32
 70
     1
  0
XRECORD
  5
586
102
{ACAD_REACTORS
330
585
102
}
330
585
100
AcDbXrecord
280
     1
102
RTVSPropertyOp0
 70
     1
102
RTVSPropertyOp1
 70
     1
102
RTVSPropertyOp2
 70
     1
102
RTVSPropertyOp3
 70
     1
102
RTVSPropertyOp4
 70
     1
102
RTVSPropertyOp5
 70
     1
102
RTVSPropertyOp6
 70
     1
102
RTVSPropertyOp7
 70
     1
102
RTVSPropertyOp8
 70
     1
102
RTVSPropertyOp9
 70
     1
102
RTVSPropertyOp10
 70
     1
102
RTVSPropertyOp11
 70
     1
102
RTVSPropertyOp12
 70
     1
102
RTVSPropertyOp13
 70
     1
102
RTVSPropertyOp14
 70
     1
102
RTVSPropertyOp15
 70
     1
102
RTVSPropertyOp16
 70
     1
102
RTVSPropertyOp17
 70
     1
102
RTVSPropertyOp18
 70
     1
102
RTVSPropertyOp19
 70
     1
102
RTVSPropertyOp20
 70
     1
102
RTVSPropertyOp21
 70
     1
102
RTVSPropertyOp22
 70
     1
102
RTVSPropertyOp23
 70
     1
102
RTVSPropertyOp24
 70
     1
102
RTVSPropertyOp25
 70
     1
102
RTVSPropertyOp26
 70
     1
102
RTVSPropertyOp27
 70
     1
102
RTVSPropertyOp28
 70
     1
102
RTVSPropertyOp29
 70
     1
102
RTVSPropertyOp30
 70
     1
102
RTVSPropertyOp31
 70
     1
102
RTVSPropertyOp32
 70
     1
  0
XRECORD
  5
588
102
{ACAD_REACTORS
330
587
102
}
330
587
100
AcDbXrecord
280
     1
102
RTVSPropertyOp0
 70
     1
102
RTVSPropertyOp1
 70
     1
102
RTVSPropertyOp2
 70
     1
102
RTVSPropertyOp3
 70
     1
102
RTVSPropertyOp4
 70
     1
102
RTVSPropertyOp5
 70
     1
102
RTVSPropertyOp6
 70
     1
102
RTVSPropertyOp7
 70
     1
102
RTVSPropertyOp8
 70
     1
102
RTVSPropertyOp9
 70
     1
102
RTVSPropertyOp10
 70
     1
102
RTVSPropertyOp11
 70
     1
102
RTVSPropertyOp12
 70
     1
102
RTVSPropertyOp13
 70
     1
102
RTVSPropertyOp14
 70
     1
102
RTVSPropertyOp15
 70
     1
102
RTVSPropertyOp16
 70
     1
102
RTVSPropertyOp17
 70
     1
102
RTVSPropertyOp18
 70
     1
102
RTVSPropertyOp19
 70
     1
102
RTVSPropertyOp20
 70
     1
102
RTVSPropertyOp21
 70
     1
102
RTVSPropertyOp22
 70
     1
102
RTVSPropertyOp23
 70
     1
102
RTVSPropertyOp24
 70
     1
102
RTVSPropertyOp25
 70
     1
102
RTVSPropertyOp26
 70
     1
102
RTVSPropertyOp27
 70
     1
102
RTVSPropertyOp28
 70
     1
102
RTVSPropertyOp29
 70
     1
102
RTVSPropertyOp30
 70
     1
102
RTVSPropertyOp31
 70
     1
102
RTVSPropertyOp32
 70
     1
  0
XRECORD
  5
58A
102
{ACAD_REACTORS
330
589
102
}
330
589
100
AcDbXrecord
280
     1
102
RTVSPropertyOp0
 70
     1
102
RTVSPropertyOp1
 70
     1
102
RTVSPropertyOp2
 70
     1
102
RTVSPropertyOp3
 70
     1
102
RTVSPropertyOp4
 70
     1
102
RTVSPropertyOp5
 70
     1
102
RTVSPropertyOp6
 70
     1
102
RTVSPropertyOp7
 70
     1
102
RTVSPropertyOp8
 70
     1
102
RTVSPropertyOp9
 70
     1
102
RTVSPropertyOp10
 70
     1
102
RTVSPropertyOp11
 70
     1
102
RTVSPropertyOp12
 70
     1
102
RTVSPropertyOp13
 70
     1
102
RTVSPropertyOp14
 70
     1
102
RTVSPropertyOp15
 70
     1
102
RTVSPropertyOp16
 70
     1
102
RTVSPropertyOp17
 70
     1
102
RTVSPropertyOp18
 70
     1
102
RTVSPropertyOp19
 70
     1
102
RTVSPropertyOp20
 70
     1
102
RTVSPropertyOp21
 70
     1
102
RTVSPropertyOp22
 70
     1
102
RTVSPropertyOp23
 70
     1
102
RTVSPropertyOp24
 70
     1
102
RTVSPropertyOp25
 70
     1
102
RTVSPropertyOp26
 70
     1
102
RTVSPropertyOp27
 70
     1
102
RTVSPropertyOp28
 70
     1
102
RTVSPropertyOp29
 70
     1
102
RTVSPropertyOp30
 70
     1
102
RTVSPropertyOp31
 70
     1
102
RTVSPropertyOp32
 70
     1
  0
XRECORD
  5
592
102
{ACAD_REACTORS
330
591
102
}
330
591
100
AcDbXrecord
280
     1
102
RTVSPropertyOp0
 70
     1
102
RTVSPropertyOp1
 70
     1
102
RTVSPropertyOp2
 70
     1
102
RTVSPropertyOp3
 70
     1
102
RTVSPropertyOp4
 70
     1
102
RTVSPropertyOp5
 70
     1
102
RTVSPropertyOp6
 70
     1
102
RTVSPropertyOp7
 70
     1
102
RTVSPropertyOp8
 70
     1
102
RTVSPropertyOp9
 70
     1
102
RTVSPropertyOp10
 70
     1
102
RTVSPropertyOp11
 70
     1
102
RTVSPropertyOp12
 70
     1
102
RTVSPropertyOp13
 70
     1
102
RTVSPropertyOp14
 70
     1
102
RTVSPropertyOp15
 70
     1
102
RTVSPropertyOp16
 70
     1
102
RTVSPropertyOp17
 70
     1
102
RTVSPropertyOp18
 70
     1
102
RTVSPropertyOp19
 70
     1
102
RTVSPropertyOp20
 70
     1
102
RTVSPropertyOp21
 70
     1
102
RTVSPropertyOp22
 70
     1
102
RTVSPropertyOp23
 70
     1
102
RTVSPropertyOp24
 70
     1
102
RTVSPropertyOp25
 70
     1
102
RTVSPropertyOp26
 70
     1
102
RTVSPropertyOp27
 70
     1
102
RTVSPropertyOp28
 70
     1
102
RTVSPropertyOp29
 70
     1
102
RTVSPropertyOp30
 70
     1
102
RTVSPropertyOp31
 70
     1
102
RTVSPropertyOp32
 70
     1
  0
XRECORD
  5
5AE
102
{ACAD_REACTORS
330
5AD
102
}
330
5AD
100
AcDbXrecord
280
     1
102
RTVSPropertyOp0
 70
     0
102
RTVSPropertyOp1
 70
     0
102
RTVSPropertyOp2
 70
     0
102
RTVSPropertyOp3
 70
     0
102
RTVSPropertyOp4
 70
     0
102
RTVSPropertyOp5
 70
     0
102
RTVSPropertyOp6
 70
     0
102
RTVSPropertyOp7
 70
     0
102
RTVSPropertyOp8
 70
     0
102
RTVSPropertyOp9
 70
     0
102
RTVSPropertyOp10
 70
     0
102
RTVSPropertyOp11
 70
     0
102
RTVSPropertyOp12
 70
     0
102
RTVSPropertyOp13
 70
     0
102
RTVSPropertyOp14
 70
     2
102
RTVSPropertyOp15
 70
     0
102
RTVSPropertyOp16
 70
     0
102
RTVSPropertyOp17
 70
     0
102
RTVSPropertyOp18
 70
     0
102
RTVSPropertyOp19
 70
     0
102
RTVSPropertyOp20
 70
     0
102
RTVSPropertyOp21
 70
     0
102
RTVSPropertyOp22
 70
     0
102
RTVSPropertyOp23
 70
     0
102
RTVSPropertyOp24
 70
     0
102
RTVSPropertyOp25
 70
     0
102
RTVSPropertyOp26
 70
     0
102
RTVSPropertyOp27
 70
     0
102
RTVSPropertyOp28
 70
     0
102
RTVSPropertyOp29
 70
     0
102
RTVSPropertyOp30
 70
     0
102
RTVSPropertyOp31
 70
     0
102
RTVSPropertyOp32
 70
     0
  0
XRECORD
  5
59E
102
{ACAD_REACTORS
330
59D
102
}
330
59D
100
AcDbXrecord
280
     1
102
RTVSPropertyOp0
 70
     1
102
RTVSPropertyOp1
 70
     1
102
RTVSPropertyOp2
 70
     1
102
RTVSPropertyOp3
 70
     1
102
RTVSPropertyOp4
 70
     1
102
RTVSPropertyOp5
 70
     1
102
RTVSPropertyOp6
 70
     1
102
RTVSPropertyOp7
 70
     1
102
RTVSPropertyOp8
 70
     1
102
RTVSPropertyOp9
 70
     1
102
RTVSPropertyOp10
 70
     1
102
RTVSPropertyOp11
 70
     1
102
RTVSPropertyOp12
 70
     1
102
RTVSPropertyOp13
 70
     1
102
RTVSPropertyOp14
 70
     1
102
RTVSPropertyOp15
 70
     1
102
RTVSPropertyOp16
 70
     1
102
RTVSPropertyOp17
 70
     1
102
RTVSPropertyOp18
 70
     1
102
RTVSPropertyOp19
 70
     1
102
RTVSPropertyOp20
 70
     1
102
RTVSPropertyOp21
 70
     1
102
RTVSPropertyOp22
 70
     1
102
RTVSPropertyOp23
 70
     1
102
RTVSPropertyOp24
 70
     1
102
RTVSPropertyOp25
 70
     1
102
RTVSPropertyOp26
 70
     1
102
RTVSPropertyOp27
 70
     1
102
RTVSPropertyOp28
 70
     1
102
RTVSPropertyOp29
 70
     1
102
RTVSPropertyOp30
 70
     1
102
RTVSPropertyOp31
 70
     1
102
RTVSPropertyOp32
 70
     1
  0
XRECORD
  5
5B0
102
{ACAD_REACTORS
330
5AF
102
}
330
5AF
100
AcDbXrecord
280
     1
102
RTVSPropertyOp0
 70
     0
102
RTVSPropertyOp1
 70
     0
102
RTVSPropertyOp2
 70
     0
102
RTVSPropertyOp3
 70
     0
102
RTVSPropertyOp4
 70
     0
102
RTVSPropertyOp5
 70
     0
102
RTVSPropertyOp6
 70
     0
102
RTVSPropertyOp7
 70
     0
102
RTVSPropertyOp8
 70
     0
102
RTVSPropertyOp9
 70
     0
102
RTVSPropertyOp10
 70
     0
102
RTVSPropertyOp11
 70
     0
102
RTVSPropertyOp12
 70
     0
102
RTVSPropertyOp13
 70
     0
102
RTVSPropertyOp14
 70
     2
102
RTVSPropertyOp15
 70
     0
102
RTVSPropertyOp16
 70
     0
102
RTVSPropertyOp17
 70
     0
102
RTVSPropertyOp18
 70
     0
102
RTVSPropertyOp19
 70
     0
102
RTVSPropertyOp20
 70
     0
102
RTVSPropertyOp21
 70
     0
102
RTVSPropertyOp22
 70
     0
102
RTVSPropertyOp23
 70
     0
102
RTVSPropertyOp24
 70
     0
102
RTVSPropertyOp25
 70
     0
102
RTVSPropertyOp26
 70
     0
102
RTVSPropertyOp27
 70
     0
102
RTVSPropertyOp28
 70
     0
102
RTVSPropertyOp29
 70
     0
102
RTVSPropertyOp30
 70
     0
102
RTVSPropertyOp31
 70
     0
102
RTVSPropertyOp32
 70
     0
  0
XRECORD
  5
596
102
{ACAD_REACTORS
330
595
102
}
330
595
100
AcDbXrecord
280
     1
102
RTVSPropertyOp0
 70
     1
102
RTVSPropertyOp1
 70
     1
102
RTVSPropertyOp2
 70
     1
102
RTVSPropertyOp3
 70
     1
102
RTVSPropertyOp4
 70
     1
102
RTVSPropertyOp5
 70
     1
102
RTVSPropertyOp6
 70
     1
102
RTVSPropertyOp7
 70
     1
102
RTVSPropertyOp8
 70
     1
102
RTVSPropertyOp9
 70
     1
102
RTVSPropertyOp10
 70
     1
102
RTVSPropertyOp11
 70
     1
102
RTVSPropertyOp12
 70
     1
102
RTVSPropertyOp13
 70
     1
102
RTVSPropertyOp14
 70
     1
102
RTVSPropertyOp15
 70
     1
102
RTVSPropertyOp16
 70
     1
102
RTVSPropertyOp17
 70
     1
102
RTVSPropertyOp18
 70
     1
102
RTVSPropertyOp19
 70
     1
102
RTVSPropertyOp20
 70
     1
102
RTVSPropertyOp21
 70
     1
102
RTVSPropertyOp22
 70
     1
102
RTVSPropertyOp23
 70
     1
102
RTVSPropertyOp24
 70
     1
102
RTVSPropertyOp25
 70
     1
102
RTVSPropertyOp26
 70
     1
102
RTVSPropertyOp27
 70
     1
102
RTVSPropertyOp28
 70
     1
102
RTVSPropertyOp29
 70
     1
102
RTVSPropertyOp30
 70
     1
102
RTVSPropertyOp31
 70
     1
102
RTVSPropertyOp32
 70
     1
  0
XRECORD
  5
5AC
102
{ACAD_REACTORS
330
5AB
102
}
330
5AB
100
AcDbXrecord
280
     1
102
RTVSPropertyOp0
 70
     1
102
RTVSPropertyOp1
 70
     1
102
RTVSPropertyOp2
 70
     1
102
RTVSPropertyOp3
 70
     1
102
RTVSPropertyOp4
 70
     1
102
RTVSPropertyOp5
 70
     1
102
RTVSPropertyOp6
 70
     1
102
RTVSPropertyOp7
 70
     1
102
RTVSPropertyOp8
 70
     1
102
RTVSPropertyOp9
 70
     1
102
RTVSPropertyOp10
 70
     1
102
RTVSPropertyOp11
 70
     1
102
RTVSPropertyOp12
 70
     1
102
RTVSPropertyOp13
 70
     1
102
RTVSPropertyOp14
 70
     1
102
RTVSPropertyOp15
 70
     1
102
RTVSPropertyOp16
 70
     1
102
RTVSPropertyOp17
 70
     1
102
RTVSPropertyOp18
 70
     1
102
RTVSPropertyOp19
 70
     1
102
RTVSPropertyOp20
 70
     1
102
RTVSPropertyOp21
 70
     1
102
RTVSPropertyOp22
 70
     1
102
RTVSPropertyOp23
 70
     1
102
RTVSPropertyOp24
 70
     1
102
RTVSPropertyOp25
 70
     1
102
RTVSPropertyOp26
 70
     1
102
RTVSPropertyOp27
 70
     1
102
RTVSPropertyOp28
 70
     1
102
RTVSPropertyOp29
 70
     1
102
RTVSPropertyOp30
 70
     1
102
RTVSPropertyOp31
 70
     1
102
RTVSPropertyOp32
 70
     1
  0
XRECORD
  5
5AA
102
{ACAD_REACTORS
330
5A9
102
}
330
5A9
100
AcDbXrecord
280
     1
102
RTVSPropertyOp0
 70
     1
102
RTVSPropertyOp1
 70
     1
102
RTVSPropertyOp2
 70
     1
102
RTVSPropertyOp3
 70
     1
102
RTVSPropertyOp4
 70
     1
102
RTVSPropertyOp5
 70
     1
102
RTVSPropertyOp6
 70
     1
102
RTVSPropertyOp7
 70
     1
102
RTVSPropertyOp8
 70
     1
102
RTVSPropertyOp9
 70
     1
102
RTVSPropertyOp10
 70
     1
102
RTVSPropertyOp11
 70
     1
102
RTVSPropertyOp12
 70
     1
102
RTVSPropertyOp13
 70
     1
102
RTVSPropertyOp14
 70
     1
102
RTVSPropertyOp15
 70
     1
102
RTVSPropertyOp16
 70
     1
102
RTVSPropertyOp17
 70
     1
102
RTVSPropertyOp18
 70
     1
102
RTVSPropertyOp19
 70
     1
102
RTVSPropertyOp20
 70
     1
102
RTVSPropertyOp21
 70
     1
102
RTVSPropertyOp22
 70
     1
102
RTVSPropertyOp23
 70
     1
102
RTVSPropertyOp24
 70
     1
102
RTVSPropertyOp25
 70
     1
102
RTVSPropertyOp26
 70
     1
102
RTVSPropertyOp27
 70
     1
102
RTVSPropertyOp28
 70
     1
102
RTVSPropertyOp29
 70
     1
102
RTVSPropertyOp30
 70
     1
102
RTVSPropertyOp31
 70
     1
102
RTVSPropertyOp32
 70
     1
  0
XRECORD
  5
5A4
102
{ACAD_REACTORS
330
5A3
102
}
330
5A3
100
AcDbXrecord
280
     1
102
RTVSPropertyOp0
 70
     1
102
RTVSPropertyOp1
 70
     1
102
RTVSPropertyOp2
 70
     1
102
RTVSPropertyOp3
 70
     1
102
RTVSPropertyOp4
 70
     1
102
RTVSPropertyOp5
 70
     1
102
RTVSPropertyOp6
 70
     1
102
RTVSPropertyOp7
 70
     1
102
RTVSPropertyOp8
 70
     1
102
RTVSPropertyOp9
 70
     1
102
RTVSPropertyOp10
 70
     1
102
RTVSPropertyOp11
 70
     1
102
RTVSPropertyOp12
 70
     1
102
RTVSPropertyOp13
 70
     1
102
RTVSPropertyOp14
 70
     1
102
RTVSPropertyOp15
 70
     1
102
RTVSPropertyOp16
 70
     1
102
RTVSPropertyOp17
 70
     1
102
RTVSPropertyOp18
 70
     1
102
RTVSPropertyOp19
 70
     1
102
RTVSPropertyOp20
 70
     1
102
RTVSPropertyOp21
 70
     1
102
RTVSPropertyOp22
 70
     1
102
RTVSPropertyOp23
 70
     1
102
RTVSPropertyOp24
 70
     1
102
RTVSPropertyOp25
 70
     1
102
RTVSPropertyOp26
 70
     1
102
RTVSPropertyOp27
 70
     1
102
RTVSPropertyOp28
 70
     1
102
RTVSPropertyOp29
 70
     1
102
RTVSPropertyOp30
 70
     1
102
RTVSPropertyOp31
 70
     1
102
RTVSPropertyOp32
 70
     1
  0
XRECORD
  5
5A6
102
{ACAD_REACTORS
330
5A5
102
}
330
5A5
100
AcDbXrecord
280
     1
102
RTVSPropertyOp0
 70
     1
102
RTVSPropertyOp1
 70
     1
102
RTVSPropertyOp2
 70
     1
102
RTVSPropertyOp3
 70
     1
102
RTVSPropertyOp4
 70
     1
102
RTVSPropertyOp5
 70
     1
102
RTVSPropertyOp6
 70
     1
102
RTVSPropertyOp7
 70
     1
102
RTVSPropertyOp8
 70
     1
102
RTVSPropertyOp9
 70
     1
102
RTVSPropertyOp10
 70
     1
102
RTVSPropertyOp11
 70
     1
102
RTVSPropertyOp12
 70
     1
102
RTVSPropertyOp13
 70
     1
102
RTVSPropertyOp14
 70
     1
102
RTVSPropertyOp15
 70
     1
102
RTVSPropertyOp16
 70
     1
102
RTVSPropertyOp17
 70
     1
102
RTVSPropertyOp18
 70
     1
102
RTVSPropertyOp19
 70
     1
102
RTVSPropertyOp20
 70
     1
102
RTVSPropertyOp21
 70
     1
102
RTVSPropertyOp22
 70
     1
102
RTVSPropertyOp23
 70
     1
102
RTVSPropertyOp24
 70
     1
102
RTVSPropertyOp25
 70
     1
102
RTVSPropertyOp26
 70
     1
102
RTVSPropertyOp27
 70
     1
102
RTVSPropertyOp28
 70
     1
102
RTVSPropertyOp29
 70
     1
102
RTVSPropertyOp30
 70
     1
102
RTVSPropertyOp31
 70
     1
102
RTVSPropertyOp32
 70
     1
  0
XRECORD
  5
59C
102
{ACAD_REACTORS
330
59B
102
}
330
59B
100
AcDbXrecord
280
     1
102
RTVSPropertyOp0
 70
     1
102
RTVSPropertyOp1
 70
     1
102
RTVSPropertyOp2
 70
     1
102
RTVSPropertyOp3
 70
     1
102
RTVSPropertyOp4
 70
     1
102
RTVSPropertyOp5
 70
     1
102
RTVSPropertyOp6
 70
     1
102
RTVSPropertyOp7
 70
     1
102
RTVSPropertyOp8
 70
     1
102
RTVSPropertyOp9
 70
     1
102
RTVSPropertyOp10
 70
     1
102
RTVSPropertyOp11
 70
     1
102
RTVSPropertyOp12
 70
     1
102
RTVSPropertyOp13
 70
     1
102
RTVSPropertyOp14
 70
     1
102
RTVSPropertyOp15
 70
     1
102
RTVSPropertyOp16
 70
     1
102
RTVSPropertyOp17
 70
     1
102
RTVSPropertyOp18
 70
     1
102
RTVSPropertyOp19
 70
     1
102
RTVSPropertyOp20
 70
     1
102
RTVSPropertyOp21
 70
     1
102
RTVSPropertyOp22
 70
     1
102
RTVSPropertyOp23
 70
     1
102
RTVSPropertyOp24
 70
     1
102
RTVSPropertyOp25
 70
     1
102
RTVSPropertyOp26
 70
     1
102
RTVSPropertyOp27
 70
     1
102
RTVSPropertyOp28
 70
     1
102
RTVSPropertyOp29
 70
     1
102
RTVSPropertyOp30
 70
     1
102
RTVSPropertyOp31
 70
     1
102
RTVSPropertyOp32
 70
     1
  0
XRECORD
  5
590
102
{ACAD_REACTORS
330
58F
102
}
330
58F
100
AcDbXrecord
280
     1
102
RTVSPropertyOp0
 70
     1
102
RTVSPropertyOp1
 70
     1
102
RTVSPropertyOp2
 70
     1
102
RTVSPropertyOp3
 70
     1
102
RTVSPropertyOp4
 70
     1
102
RTVSPropertyOp5
 70
     1
102
RTVSPropertyOp6
 70
     1
102
RTVSPropertyOp7
 70
     1
102
RTVSPropertyOp8
 70
     1
102
RTVSPropertyOp9
 70
     1
102
RTVSPropertyOp10
 70
     1
102
RTVSPropertyOp11
 70
     1
102
RTVSPropertyOp12
 70
     1
102
RTVSPropertyOp13
 70
     1
102
RTVSPropertyOp14
 70
     1
102
RTVSPropertyOp15
 70
     1
102
RTVSPropertyOp16
 70
     1
102
RTVSPropertyOp17
 70
     1
102
RTVSPropertyOp18
 70
     1
102
RTVSPropertyOp19
 70
     1
102
RTVSPropertyOp20
 70
     1
102
RTVSPropertyOp21
 70
     1
102
RTVSPropertyOp22
 70
     1
102
RTVSPropertyOp23
 70
     1
102
RTVSPropertyOp24
 70
     1
102
RTVSPropertyOp25
 70
     1
102
RTVSPropertyOp26
 70
     1
102
RTVSPropertyOp27
 70
     1
102
RTVSPropertyOp28
 70
     1
102
RTVSPropertyOp29
 70
     1
102
RTVSPropertyOp30
 70
     1
102
RTVSPropertyOp31
 70
     1
102
RTVSPropertyOp32
 70
     1
  0
XRECORD
  5
5A8
102
{ACAD_REACTORS
330
5A7
102
}
330
5A7
100
AcDbXrecord
280
     1
102
RTVSPropertyOp0
 70
     1
102
RTVSPropertyOp1
 70
     1
102
RTVSPropertyOp2
 70
     1
102
RTVSPropertyOp3
 70
     1
102
RTVSPropertyOp4
 70
     1
102
RTVSPropertyOp5
 70
     1
102
RTVSPropertyOp6
 70
     1
102
RTVSPropertyOp7
 70
     1
102
RTVSPropertyOp8
 70
     1
102
RTVSPropertyOp9
 70
     1
102
RTVSPropertyOp10
 70
     1
102
RTVSPropertyOp11
 70
     1
102
RTVSPropertyOp12
 70
     1
102
RTVSPropertyOp13
 70
     1
102
RTVSPropertyOp14
 70
     1
102
RTVSPropertyOp15
 70
     1
102
RTVSPropertyOp16
 70
     1
102
RTVSPropertyOp17
 70
     1
102
RTVSPropertyOp18
 70
     1
102
RTVSPropertyOp19
 70
     1
102
RTVSPropertyOp20
 70
     1
102
RTVSPropertyOp21
 70
     1
102
RTVSPropertyOp22
 70
     1
102
RTVSPropertyOp23
 70
     1
102
RTVSPropertyOp24
 70
     1
102
RTVSPropertyOp25
 70
     1
102
RTVSPropertyOp26
 70
     1
102
RTVSPropertyOp27
 70
     1
102
RTVSPropertyOp28
 70
     1
102
RTVSPropertyOp29
 70
     1
102
RTVSPropertyOp30
 70
     1
102
RTVSPropertyOp31
 70
     1
102
RTVSPropertyOp32
 70
     1
  0
ENDSEC
  0
EOF
